  0
SECTION
  2
HEADER
  9
$ACADVER
  1
AC1009
  9
$INSBASE
 10
0.0
 20
0.0
 30
0.0
  9
$EXTMIN
 10
-0.0000002604600837
 20
-0.0000000000000071
 30
0.0
  9
$EXTMAX
 10
505.37089829991589
 20
192.50809970018761
 30
0.0
  9
$LIMMIN
 10
0.0
 20
0.0
  9
$LIMMAX
 10
420.0
 20
297.0
  9
$ORTHOMODE
 70
     0
  9
$REGENMODE
 70
     1
  9
$FILLMODE
 70
     1
  9
$QTEXTMODE
 70
     0
  9
$MIRRTEXT
 70
     0
  9
$DRAGMODE
 70
     2
  9
$LTSCALE
 40
1.0
  9
$OSMODE
 70
    55
  9
$ATTMODE
 70
     1
  9
$TEXTSIZE
 40
2.5
  9
$TRACEWID
 40
1.0
  9
$TEXTSTYLE
  7
STANDARD
  9
$CLAYER
  8
0
  9
$CELTYPE
  6
BYLAYER
  9
$CECOLOR
 62
   256
  9
$DIMSCALE
 40
1.0
  9
$DIMASZ
 40
2.5
  9
$DIMEXO
 40
0.625
  9
$DIMDLI
 40
3.75
  9
$DIMRND
 40
0.0
  9
$DIMDLE
 40
0.0
  9
$DIMEXE
 40
1.25
  9
$DIMTP
 40
0.0
  9
$DIMTM
 40
0.0
  9
$DIMTXT
 40
2.5
  9
$DIMCEN
 40
2.5
  9
$DIMTSZ
 40
0.0
  9
$DIMTOL
 70
     0
  9
$DIMLIM
 70
     0
  9
$DIMTIH
 70
     0
  9
$DIMTOH
 70
     0
  9
$DIMSE1
 70
     0
  9
$DIMSE2
 70
     0
  9
$DIMTAD
 70
     1
  9
$DIMZIN
 70
     8
  9
$DIMBLK
  1

  9
$DIMASO
 70
     1
  9
$DIMSHO
 70
     1
  9
$DIMPOST
  1

  9
$DIMAPOST
  1

  9
$DIMALT
 70
     0
  9
$DIMALTD
 70
     3
  9
$DIMALTF
 40
0.03937007874016
  9
$DIMLFAC
 40
1.0
  9
$DIMTOFL
 70
     1
  9
$DIMTVP
 40
0.0
  9
$DIMTIX
 70
     0
  9
$DIMSOXD
 70
     0
  9
$DIMSAH
 70
     0
  9
$DIMBLK1
  1

  9
$DIMBLK2
  1

  9
$DIMSTYLE
  2
ISO-25
  9
$DIMCLRD
 70
     0
  9
$DIMCLRE
 70
     0
  9
$DIMCLRT
 70
     0
  9
$DIMTFAC
 40
1.0
  9
$DIMGAP
 40
0.625
  9
$LUNITS
 70
     2
  9
$LUPREC
 70
     4
  9
$SKETCHINC
 40
1.0
  9
$FILLETRAD
 40
0.0
  9
$AUNITS
 70
     0
  9
$AUPREC
 70
     0
  9
$MENU
  1
.
  9
$ELEVATION
 40
0.0
  9
$PELEVATION
 40
0.0
  9
$THICKNESS
 40
0.0
  9
$LIMCHECK
 70
     0
  9
$BLIPMODE
 70
     0
  9
$CHAMFERA
 40
0.0
  9
$CHAMFERB
 40
0.0
  9
$SKPOLY
 70
     0
  9
$TDCREATE
 40
2455247.715030035
  9
$TDUPDATE
 40
2455337.6816953132
  9
$TDINDWG
 40
0.0227922454
  9
$TDUSRTIMER
 40
0.0227883565
  9
$USRTIMER
 70
     1
  9
$ANGBASE
 50
0.0
  9
$ANGDIR
 70
     0
  9
$PDMODE
 70
     0
  9
$PDSIZE
 40
0.0
  9
$PLINEWID
 40
0.0
  9
$COORDS
 70
     1
  9
$SPLFRAME
 70
     0
  9
$SPLINETYPE
 70
     6
  9
$SPLINESEGS
 70
     8
  9
$ATTDIA
 70
     0
  9
$ATTREQ
 70
     1
  9
$HANDLING
 70
     1
  9
$HANDSEED
  5
987
  9
$SURFTAB1
 70
     6
  9
$SURFTAB2
 70
     6
  9
$SURFTYPE
 70
     6
  9
$SURFU
 70
     6
  9
$SURFV
 70
     6
  9
$UCSNAME
  2

  9
$UCSORG
 10
0.0
 20
0.0
 30
0.0
  9
$UCSXDIR
 10
1.0
 20
0.0
 30
0.0
  9
$UCSYDIR
 10
0.0
 20
1.0
 30
0.0
  9
$PUCSNAME
  2

  9
$PUCSORG
 10
0.0
 20
0.0
 30
0.0
  9
$PUCSXDIR
 10
1.0
 20
0.0
 30
0.0
  9
$PUCSYDIR
 10
0.0
 20
1.0
 30
0.0
  9
$USERI1
 70
     0
  9
$USERI2
 70
     0
  9
$USERI3
 70
     0
  9
$USERI4
 70
     0
  9
$USERI5
 70
     0
  9
$USERR1
 40
0.0
  9
$USERR2
 40
0.0
  9
$USERR3
 40
0.0
  9
$USERR4
 40
0.0
  9
$USERR5
 40
0.0
  9
$WORLDVIEW
 70
     1
  9
$SHADEDGE
 70
     3
  9
$SHADEDIF
 70
    70
  9
$TILEMODE
 70
     1
  9
$MAXACTVP
 70
    64
  9
$PLIMCHECK
 70
     0
  9
$PEXTMIN
 10
0.0
 20
0.0
 30
0.0
  9
$PEXTMAX
 10
0.0
 20
0.0
 30
0.0
  9
$PLIMMIN
 10
0.0
 20
0.0
  9
$PLIMMAX
 10
12.0
 20
9.0
  9
$UNITMODE
 70
     0
  9
$VISRETAIN
 70
     1
  9
$PLINEGEN
 70
     0
  9
$PSLTSCALE
 70
     1
  0
ENDSEC
  0
SECTION
  2
TABLES
  0
TABLE
  2
VPORT
 70
     1
  0
VPORT
  2
*ACTIVE
 70
     0
 10
0.0
 20
0.0
 11
1.0
 21
1.0
 12
215.24275571578411
 22
59.58228064872867
 13
0.0
 23
0.0
 14
10.0
 24
10.0
 15
10.0
 25
10.0
 16
0.0
 26
0.0
 36
1.0
 17
0.0
 27
0.0
 37
0.0
 40
279.70496328709783
 41
2.3647058823529412
 42
50.0
 43
0.0
 44
0.0
 50
0.0
 51
0.0
 71
     0
 72
  1000
 73
     1
 74
     3
 75
     0
 76
     0
 77
     0
 78
     0
  0
ENDTAB
  0
TABLE
  2
LTYPE
 70
     1
  0
LTYPE
  2
CONTINUOUS
 70
     0
  3
Solid line
 72
    65
 73
     0
 40
0.0
  0
ENDTAB
  0
TABLE
  2
LAYER
 70
     1
  0
LAYER
  2
0
 70
     0
 62
     7
  6
CONTINUOUS
  0
ENDTAB
  0
TABLE
  2
STYLE
 70
     2
  0
STYLE
  2
STANDARD
 70
     0
 40
0.0
 41
1.0
 50
0.0
 71
     0
 42
2.5
  3
txt
  4

  0
STYLE
  2
ANNOTATIVE
 70
     0
 40
0.0
 41
1.0
 50
0.0
 71
     0
 42
2.5
  3
txt.shx
  4

  0
ENDTAB
  0
TABLE
  2
VIEW
 70
     0
  0
ENDTAB
  0
TABLE
  2
UCS
 70
     0
  0
ENDTAB
  0
TABLE
  2
APPID
 70
     8
  0
APPID
  2
ACAD
 70
     0
  0
APPID
  2
ACADANNOTATIVE
 70
     0
  0
APPID
  2
ACAD_MLEADERVER
 70
     0
  0
APPID
  2
ACAD_PSEXT
 70
     0
  0
APPID
  2
ACADANNOPO
 70
     0
  0
APPID
  2
ACAD_DSTYLE_DIMJAG
 70
     0
  0
APPID
  2
ACAD_DSTYLE_DIMTALN
 70
     0
  0
APPID
  2
ACAD_EXEMPT_FROM_CAD_STANDARDS
 70
     0
  0
ENDTAB
  0
TABLE
  2
DIMSTYLE
 70
     3
  0
DIMSTYLE
  2
STANDARD
 70
     0
  3

  4

  5

  6

  7

 40
1.0
 41
0.18
 42
0.0625
 43
0.38
 44
0.18
 45
0.0
 46
0.0
 47
0.0
 48
0.0
140
0.18
141
0.09
142
0.0
143
25.399999999999999
144
1.0
145
0.0
146
1.0
147
0.09
 71
     0
 72
     0
 73
     1
 74
     1
 75
     0
 76
     0
 77
     0
 78
     0
170
     0
171
     2
172
     0
173
     0
174
     0
175
     0
176
     0
177
     0
178
     0
  0
DIMSTYLE
  2
ANNOTATIVE
 70
     0
  3

  4

  5

  6

  7

 40
0.0
 41
2.5
 42
0.625
 43
3.75
 44
1.25
 45
0.0
 46
0.0
 47
0.0
 48
0.0
140
2.5
141
2.5
142
0.0
143
0.03937007874016
144
1.0
145
0.0
146
1.0
147
0.625
 71
     0
 72
     0
 73
     0
 74
     0
 75
     0
 76
     0
 77
     1
 78
     8
170
     0
171
     3
172
     1
173
     0
174
     0
175
     0
176
     0
177
     0
178
     0
  0
DIMSTYLE
  2
ISO-25
 70
     0
  3

  4

  5

  6

  7

 40
1.0
 41
2.5
 42
0.625
 43
3.75
 44
1.25
 45
0.0
 46
0.0
 47
0.0
 48
0.0
140
2.5
141
2.5
142
0.0
143
0.03937007874016
144
1.0
145
0.0
146
1.0
147
0.625
 71
     0
 72
     0
 73
     0
 74
     0
 75
     0
 76
     0
 77
     1
 78
     8
170
     0
171
     3
172
     1
173
     0
174
     0
175
     0
176
     0
177
     0
178
     0
  0
ENDTAB
  0
ENDSEC
  0
SECTION
  2
BLOCKS
  0
BLOCK
  8
0
  2
$MODEL_SPACE
 70
     0
 10
0.0
 20
0.0
 30
0.0
  3
$MODEL_SPACE
  1

  0
ENDBLK
  5
8CA
  8
0
  0
BLOCK
 67
     1
  8
0
  2
$PAPER_SPACE
 70
     0
 10
0.0
 20
0.0
 30
0.0
  3
$PAPER_SPACE
  1

  0
ENDBLK
  5
8C6
 67
     1
  8
0
  0
BLOCK
  8
0
  2
A$C147133B1
 70
     0
 10
0.0
 20
0.0
 30
0.0
  3
A$C147133B1
  1

  0
LINE
  5
766
  8
0
 10
33.00000004669338
 20
49.000000038488963
 30
0.0
 11
37.000000046693373
 21
49.000000038488963
 31
0.0
  0
LINE
  5
767
  8
0
 10
33.000000046693337
 20
19.00000003848896
 30
0.0
 11
37.000000046693337
 21
19.00000003848896
 31
0.0
  0
LINE
  5
768
  8
0
 10
33.00000004669338
 20
41.000000038488963
 30
0.0
 11
37.000000046693373
 21
41.000000038488963
 31
0.0
  0
LINE
  5
769
  8
0
 10
37.000000046693373
 20
41.000000038488963
 30
0.0
 11
37.000000046693337
 21
27.00000003848896
 31
0.0
  0
LINE
  5
76A
  8
0
 10
37.000000046693337
 20
27.00000003848896
 30
0.0
 11
33.000000046693337
 21
27.00000003848896
 31
0.0
  0
LINE
  5
76B
  8
0
 10
37.000000046693373
 20
63.00000003848897
 30
0.0
 11
37.000000046693373
 21
49.000000038488963
 31
0.0
  0
LINE
  5
76C
  8
0
 10
37.000000046693337
 20
19.00000003848896
 30
0.0
 11
37.000000046693337
 21
5.0000000384889631
 31
0.0
  0
LINE
  5
76D
  8
0
 10
33.00000004669338
 20
63.00000003848897
 30
0.0
 11
37.000000046693373
 21
63.00000003848897
 31
0.0
  0
LINE
  5
76E
  8
0
 10
33.000000046693337
 20
5.0000000384889631
 30
0.0
 11
37.000000046693337
 21
5.0000000384889631
 31
0.0
  0
LINE
  5
76F
  8
0
 10
33.00000004669338
 20
63.00000003848897
 30
0.0
 11
33.00000004669338
 21
68.000000038488963
 31
0.0
  0
LINE
  5
770
  8
0
 10
33.000000046693337
 20
5.0000000384889631
 30
0.0
 11
33.000000046693337
 21
0.0000000384889631
 31
0.0
  0
CIRCLE
  5
771
  8
0
 10
22.000000046693291
 20
10.000000038488899
 30
0.0
 40
1.5
  0
CIRCLE
  5
772
  8
0
 10
11.500000046693289
 20
10.000000038488899
 30
0.0
 40
1.5
  0
CIRCLE
  5
773
  8
0
 10
22.000000046693291
 20
58.000000038489027
 30
0.0
 40
1.5
  0
CIRCLE
  5
774
  8
0
 10
11.500000046693289
 20
58.000000038489027
 30
0.0
 40
1.5
  0
LINE
  5
775
  8
0
 10
6.5000000466932866
 20
54.50000003848902
 30
0.0
 11
15.50000004669328
 21
54.50000003848902
 31
0.0
  0
LINE
  5
776
  8
0
 10
6.5000000466932866
 20
13.500000038488899
 30
0.0
 11
6.5000000466932866
 21
54.50000003848902
 31
0.0
  0
LINE
  5
777
  8
0
 10
27.000000046693319
 20
13.500000038488899
 30
0.0
 11
18.00000004669328
 21
13.500000038488899
 31
0.0
  0
LINE
  5
778
  8
0
 10
27.000000046693341
 20
54.50000003848902
 30
0.0
 11
27.000000046693319
 21
13.500000038488899
 31
0.0
  0
LINE
  5
779
  8
0
 10
15.50000004669328
 20
10.000000038488899
 30
0.0
 11
18.00000004669328
 21
10.000000038488899
 31
0.0
  0
LINE
  5
77A
  8
0
 10
18.00000004669328
 20
10.000000038488899
 30
0.0
 11
18.00000004669328
 21
13.500000038488899
 31
0.0
  0
LINE
  5
77B
  8
0
 10
15.50000004669328
 20
10.000000038488899
 30
0.0
 11
15.50000004669328
 21
13.500000038488899
 31
0.0
  0
LINE
  5
77C
  8
0
 10
15.50000004669328
 20
58.000000038489027
 30
0.0
 11
18.00000004669328
 21
58.000000038489027
 31
0.0
  0
LINE
  5
77D
  8
0
 10
18.00000004669328
 20
58.000000038489027
 30
0.0
 11
18.00000004669328
 21
54.50000003848902
 31
0.0
  0
LINE
  5
77E
  8
0
 10
15.50000004669328
 20
58.000000038489027
 30
0.0
 11
15.50000004669328
 21
54.50000003848902
 31
0.0
  0
LINE
  5
77F
  8
0
 10
18.00000004669328
 20
54.50000003848902
 30
0.0
 11
27.000000046693341
 21
54.50000003848902
 31
0.0
  0
LINE
  5
780
  8
0
 10
15.50000004669328
 20
13.500000038488899
 30
0.0
 11
6.5000000466932866
 21
13.500000038488899
 31
0.0
  0
LINE
  5
781
  8
0
 10
33.000000046693337
 20
19.00000003848896
 30
0.0
 11
33.000000046693337
 21
27.00000003848896
 31
0.0
  0
LINE
  5
782
  8
0
 10
33.00000004669338
 20
41.000000038488963
 30
0.0
 11
33.00000004669338
 21
49.000000038488963
 31
0.0
  0
LINE
  5
783
  8
0
 10
33.00000004669338
 20
68.000000038488963
 30
0.0
 11
10.00000004669336
 21
68.000000038488963
 31
0.0
  0
LINE
  5
784
  8
0
 10
0.0000000466933443
 20
58.00000003848897
 30
0.0
 11
0.0000000466933443
 21
10.00000003848896
 31
0.0
  0
ARC
  5
785
  8
0
 10
10.00000004669336
 20
58.00000003848897
 30
0.0
 40
10.0
 50
90.0
 51
180.0
  0
ARC
  5
786
  8
0
 10
10.000000046693341
 20
10.00000003848896
 30
0.0
 40
10.0
 50
180.0
 51
270.0
  0
LINE
  5
787
  8
0
 10
10.000000046693341
 20
0.0000000384889631
 30
0.0
 11
33.000000046693337
 21
0.0000000384889631
 31
0.0
  0
CIRCLE
  5
788
  8
0
 10
6.5000000466933443
 20
6.5000000384889631
 30
0.0
 40
1.5
  0
ENDBLK
  5
78A
  8
0
  0
ENDSEC
  0
SECTION
  2
ENTITIES
  0
CIRCLE
  5
1C5
  8
0
 10
89.99999973953993
 20
47.500000062766951
 30
0.0
 40
1.5
  0
CIRCLE
  5
1C6
  8
0
 10
60.633222000475257
 20
87.919902005310988
 30
0.0
 40
1.5
  0
CIRCLE
  5
1C7
  8
0
 10
13.1167774786046
 20
72.480873285197063
 30
0.0
 40
1.5
  0
CIRCLE
  5
1C8
  8
0
 10
13.1167774786046
 20
22.51912684033687
 30
0.0
 40
1.5
  0
CIRCLE
  5
1C9
  8
0
 10
60.633222000475257
 20
7.0800981202229423
 30
0.0
 40
1.5
  0
CIRCLE
  5
1CA
  8
0
 10
47.499999739539909
 20
47.500000062766951
 30
0.0
 40
47.5
  0
CIRCLE
  5
1CB
  8
0
 10
47.499999739539909
 20
47.500000062766951
 30
0.0
 40
11.5
  0
CIRCLE
  5
1D0
  8
0
 10
13.1167774786046
 20
22.51912684033687
 30
0.0
 40
2.75
  0
CIRCLE
  5
1D1
  8
0
 10
60.633222000475257
 20
7.0800981202229423
 30
0.0
 40
2.75
  0
CIRCLE
  5
1D4
  8
0
 10
13.1167774786046
 20
72.480873285197063
 30
0.0
 40
2.75
  0
CIRCLE
  5
1D5
  8
0
 10
60.633222000475257
 20
87.919902005310988
 30
0.0
 40
2.75
  0
CIRCLE
  5
1D7
  8
0
 10
89.99999973953993
 20
47.500000062766951
 30
0.0
 40
2.75
  0
ARC
  5
203
  8
0
 10
153.89272840263041
 20
54.500000000000007
 30
0.0
 40
47.5
 50
186.6491627650725
 51
263.35083723492647
  0
CIRCLE
  5
204
  8
0
 10
196.3927284026303
 20
54.500000000000007
 30
0.0
 40
1.5
  0
CIRCLE
  5
205
  8
0
 10
167.0259506635656
 20
94.919901942544001
 30
0.0
 40
1.5
  0
CIRCLE
  5
206
  8
0
 10
119.5095061416951
 20
79.480873222430091
 30
0.0
 40
1.5
  0
CIRCLE
  5
207
  8
0
 10
119.5095061416951
 20
29.51912677756992
 30
0.0
 40
1.5
  0
CIRCLE
  5
208
  8
0
 10
167.0259506635656
 20
14.08009805745596
 30
0.0
 40
1.5
  0
LINE
  5
209
  8
0
 10
150.89272840263041
 20
109.0
 30
0.0
 11
156.89272840263041
 21
109.0
 31
0.0
  0
CIRCLE
  5
20A
  8
0
 10
153.89272840263041
 20
105.5
 30
0.0
 40
1.5
  0
LINE
  5
20B
  8
0
 10
159.39272840263041
 20
104.0
 30
0.0
 11
156.89272840263041
 21
109.0
 31
0.0
  0
LINE
  5
20C
  8
0
 10
150.89272840263041
 20
109.0
 30
0.0
 11
148.39272840263041
 21
104.0
 31
0.0
  0
LINE
  5
20D
  8
0
 10
148.39272840263041
 20
104.0
 30
0.0
 11
148.39272840263041
 21
101.68050444834169
 31
0.0
  0
LINE
  5
20E
  8
0
 10
159.39272840263041
 20
104.0
 30
0.0
 11
159.39272840263041
 21
101.68050444834169
 31
0.0
  0
LINE
  5
20F
  8
0
 10
208.39272840263041
 20
57.5
 30
0.0
 11
208.39272840263041
 21
51.499999999999979
 31
0.0
  0
CIRCLE
  5
210
  8
0
 10
204.89272840263041
 20
54.500000000000007
 30
0.0
 40
1.5
  0
LINE
  5
211
  8
0
 10
203.39272840263041
 20
48.999999999999979
 30
0.0
 11
208.39272840263041
 21
51.499999999999979
 31
0.0
  0
LINE
  5
212
  8
0
 10
208.39272840263041
 20
57.5
 30
0.0
 11
203.39272840263041
 21
60.0
 31
0.0
  0
LINE
  5
213
  8
0
 10
203.39272840263041
 20
60.0
 30
0.0
 11
201.07323285097209
 21
60.0
 31
0.0
  0
LINE
  5
214
  8
0
 10
203.39272840263041
 20
48.999999999999979
 30
0.0
 11
201.07323285097209
 21
48.999999999999979
 31
0.0
  0
LINE
  5
215
  8
0
 10
99.392728402630354
 20
51.499999999999979
 30
0.0
 11
99.392728402630354
 21
57.5
 31
0.0
  0
CIRCLE
  5
216
  8
0
 10
102.8927284026303
 20
54.500000000000007
 30
0.0
 40
1.5
  0
LINE
  5
217
  8
0
 10
104.3927284026304
 20
60.0
 30
0.0
 11
99.392728402630354
 21
57.5
 31
0.0
  0
LINE
  5
218
  8
0
 10
99.392728402630354
 20
51.499999999999979
 30
0.0
 11
104.3927284026304
 21
48.999999999999979
 31
0.0
  0
LINE
  5
219
  8
0
 10
104.3927284026304
 20
48.999999999999979
 30
0.0
 11
106.7122239542885
 21
48.999999999999979
 31
0.0
  0
LINE
  5
21A
  8
0
 10
104.3927284026304
 20
60.0
 30
0.0
 11
106.7122239542885
 21
60.0
 31
0.0
  0
LINE
  5
21B
  8
0
 10
156.89272840263041
 20
-0.0000000000000071
 30
0.0
 11
150.89272840263041
 21
0.0000000000000071
 31
0.0
  0
CIRCLE
  5
21C
  8
0
 10
153.89272840263041
 20
3.4999999999999911
 30
0.0
 40
1.5
  0
LINE
  5
21D
  8
0
 10
148.39272840263041
 20
5.0000000000000071
 30
0.0
 11
150.89272840263041
 21
0.0000000000000071
 31
0.0
  0
LINE
  5
21E
  8
0
 10
156.89272840263041
 20
-0.0000000000000071
 30
0.0
 11
159.39272840263041
 21
4.999999999999992
 31
0.0
  0
LINE
  5
21F
  8
0
 10
159.39272840263041
 20
4.999999999999992
 30
0.0
 11
159.39272840263041
 21
7.3194955516582247
 31
0.0
  0
LINE
  5
220
  8
0
 10
148.39272840263041
 20
5.0000000000000071
 30
0.0
 11
148.39272840263041
 21
7.319495551658239
 31
0.0
  0
ARC
  5
221
  8
0
 10
153.89272840263041
 20
54.500000000000007
 30
0.0
 40
47.5
 50
96.649162765073413
 51
173.3508372349273
  0
ARC
  5
222
  8
0
 10
153.89272840263041
 20
54.500000000000007
 30
0.0
 40
47.5
 50
6.6491627650726493
 51
83.35083723492653
  0
ARC
  5
223
  8
0
 10
153.89272840263041
 20
54.500000000000007
 30
0.0
 40
47.5
 50
276.64916276507353
 51
353.35083723492733
  0
CIRCLE
  5
224
  8
0
 10
119.5095061416951
 20
79.480873222430091
 30
0.0
 40
2.75
  0
CIRCLE
  5
225
  8
0
 10
119.5095061416951
 20
29.51912677756992
 30
0.0
 40
2.75
  0
CIRCLE
  5
226
  8
0
 10
167.0259506635656
 20
94.919901942544001
 30
0.0
 40
2.75
  0
CIRCLE
  5
227
  8
0
 10
196.3927284026303
 20
54.500000000000007
 30
0.0
 40
2.75
  0
CIRCLE
  5
228
  8
0
 10
167.0259506635656
 20
14.08009805745596
 30
0.0
 40
2.75
  0
LINE
  5
24C
  8
0
 10
68.500000000000014
 20
176.50809970018761
 30
0.0
 11
72.500000000000014
 21
176.50809970018761
 31
0.0
  0
LINE
  5
24D
  8
0
 10
72.500000000000014
 20
118.5080997001876
 30
0.0
 11
68.500000000000014
 21
118.5080997001876
 31
0.0
  0
LINE
  5
24E
  8
0
 10
68.500000000000014
 20
162.50809970018761
 30
0.0
 11
72.500000000000014
 21
162.50809970018761
 31
0.0
  0
LINE
  5
24F
  8
0
 10
68.500000000000014
 20
132.50809970018761
 30
0.0
 11
72.500000000000014
 21
132.50809970018761
 31
0.0
  0
LINE
  5
250
  8
0
 10
68.500000000000014
 20
154.50809970018761
 30
0.0
 11
72.500000000000014
 21
154.50809970018761
 31
0.0
  0
LINE
  5
251
  8
0
 10
72.500000000000014
 20
154.50809970018761
 30
0.0
 11
72.500000000000014
 21
140.50809970018761
 31
0.0
  0
LINE
  5
252
  8
0
 10
72.500000000000014
 20
140.50809970018761
 30
0.0
 11
68.500000000000014
 21
140.50809970018761
 31
0.0
  0
LINE
  5
253
  8
0
 10
72.500000000000014
 20
176.50809970018761
 30
0.0
 11
72.500000000000014
 21
162.50809970018761
 31
0.0
  0
LINE
  5
254
  8
0
 10
68.500000000000014
 20
132.50809970018761
 30
0.0
 11
68.500000000000014
 21
118.5080997001876
 31
0.0
  0
LINE
  5
255
  8
0
 10
72.500000000000014
 20
132.50809970018761
 30
0.0
 11
72.500000000000014
 21
118.5080997001876
 31
0.0
  0
LINE
  5
256
  8
0
 10
68.500000000000014
 20
140.50809970018761
 30
0.0
 11
68.500000000000014
 21
154.50809970018761
 31
0.0
  0
LINE
  5
257
  8
0
 10
17.500000000000011
 20
162.50809970018761
 30
0.0
 11
21.500000000000011
 21
162.50809970018761
 31
0.0
  0
LINE
  5
258
  8
0
 10
17.500000000000011
 20
132.50809970018761
 30
0.0
 11
21.500000000000011
 21
132.50809970018761
 31
0.0
  0
LINE
  5
259
  8
0
 10
17.500000000000011
 20
154.50809970018761
 30
0.0
 11
21.500000000000011
 21
154.50809970018761
 31
0.0
  0
LINE
  5
25A
  8
0
 10
21.500000000000011
 20
154.50809970018761
 30
0.0
 11
21.500000000000011
 21
140.50809970018761
 31
0.0
  0
LINE
  5
25B
  8
0
 10
21.500000000000011
 20
140.50809970018761
 30
0.0
 11
17.500000000000011
 21
140.50809970018761
 31
0.0
  0
LINE
  5
25C
  8
0
 10
17.500000000000011
 20
162.50809970018761
 30
0.0
 11
17.500000000000011
 21
176.50809970018761
 31
0.0
  0
LINE
  5
25D
  8
0
 10
21.500000000000011
 20
176.50809970018761
 30
0.0
 11
21.500000000000011
 21
162.50809970018761
 31
0.0
  0
LINE
  5
25E
  8
0
 10
17.500000000000011
 20
132.50809970018761
 30
0.0
 11
17.500000000000011
 21
118.5080997001876
 31
0.0
  0
LINE
  5
25F
  8
0
 10
21.500000000000011
 20
132.50809970018761
 30
0.0
 11
21.500000000000011
 21
118.5080997001876
 31
0.0
  0
LINE
  5
260
  8
0
 10
17.500000000000011
 20
140.50809970018761
 30
0.0
 11
17.500000000000011
 21
154.50809970018761
 31
0.0
  0
LINE
  5
261
  8
0
 10
17.500000000000011
 20
176.50809970018761
 30
0.0
 11
21.500000000000011
 21
176.50809970018761
 31
0.0
  0
LINE
  5
262
  8
0
 10
17.500000000000011
 20
118.5080997001876
 30
0.0
 11
21.500000000000011
 21
118.5080997001876
 31
0.0
  0
LINE
  5
263
  8
0
 10
17.500000000000011
 20
175.25809970018761
 30
0.0
 11
17.500000000000011
 21
167.75809970018761
 31
0.0
  0
CIRCLE
  5
264
  8
0
 10
45.0
 20
147.50809970018761
 30
0.0
 40
45.0
  0
CIRCLE
  5
265
  8
0
 10
45.0
 20
147.50809970018761
 30
0.0
 40
4.0
  0
LINE
  5
26A
  8
0
 10
68.500000000000014
 20
176.50809970018761
 30
0.0
 11
68.500000000000014
 21
162.50809970018761
 31
0.0
  0
LINE
  5
378
  8
0
 10
209.34896730055991
 20
67.866545850070224
 30
0.0
 11
209.34896730055991
 21
91.86654585007021
 31
0.0
  0
LINE
  5
379
  8
0
 10
211.34896730055991
 20
93.866545850070196
 30
0.0
 11
265.34896730055988
 21
93.866545850070196
 31
0.0
  0
LINE
  5
37A
  8
0
 10
387.34896730055988
 20
93.866545850070196
 30
0.0
 11
333.34896730055982
 21
93.866545850070267
 31
0.0
  0
LINE
  5
37B
  8
0
 10
331.34896730055982
 20
91.866545850070267
 30
0.0
 11
331.34896730055982
 21
91.866545850070267
 31
0.0
  0
LINE
  5
37C
  8
0
 10
329.34896730055982
 20
89.866545850070224
 30
0.0
 11
269.34896730055988
 21
89.866545850070224
 31
0.0
  0
ARC
  5
37D
  8
0
 10
211.34896730055991
 20
91.86654585007021
 30
0.0
 40
2.0
 50
90.0
 51
180.0
  0
ARC
  5
37E
  8
0
 10
265.34896730055988
 20
91.86654585007021
 30
0.0
 40
2.0
 50
0.0
 51
90.0
  0
ARC
  5
37F
  8
0
 10
269.34896730055988
 20
91.86654585007021
 30
0.0
 40
2.0
 50
180.0
 51
270.0
  0
ARC
  5
380
  8
0
 10
333.34896730055982
 20
91.866545850070267
 30
0.0
 40
2.0
 50
90.0
 51
180.0
  0
ARC
  5
381
  8
0
 10
329.34896730055982
 20
91.866545850070267
 30
0.0
 40
2.0
 50
270.0
 51
0.0
  0
ARC
  5
382
  8
0
 10
387.34896730055988
 20
91.86654585007021
 30
0.0
 40
2.0
 50
0.0
 51
90.0
  0
CIRCLE
  5
383
  8
0
 10
262.84896730055988
 20
85.116545850070224
 30
0.0
 40
1.5
  0
CIRCLE
  5
384
  8
0
 10
262.84896730055988
 20
74.616545850070196
 30
0.0
 40
1.5
  0
CIRCLE
  5
385
  8
0
 10
213.84896730055999
 20
85.116545850070224
 30
0.0
 40
1.5
  0
CIRCLE
  5
386
  8
0
 10
213.84896730055999
 20
74.616545850070196
 30
0.0
 40
1.5
  0
LINE
  5
387
  8
0
 10
217.84896730055999
 20
69.61654585007021
 30
0.0
 11
217.84896730055999
 21
78.616545850070224
 31
0.0
  0
LINE
  5
388
  8
0
 10
258.84896730055988
 20
69.61654585007021
 30
0.0
 11
217.84896730055999
 21
69.61654585007021
 31
0.0
  0
LINE
  5
389
  8
0
 10
258.84896730055988
 20
90.116545850070267
 30
0.0
 11
258.84896730055988
 21
81.116545850070224
 31
0.0
  0
LINE
  5
38A
  8
0
 10
217.84896730055999
 20
90.116545850070267
 30
0.0
 11
258.84896730055988
 21
90.116545850070267
 31
0.0
  0
CIRCLE
  5
38B
  8
0
 10
384.84896730055999
 20
85.116545850070224
 30
0.0
 40
1.5
  0
CIRCLE
  5
38C
  8
0
 10
384.84896730055999
 20
74.616545850070224
 30
0.0
 40
1.5
  0
CIRCLE
  5
38D
  8
0
 10
335.84896730055982
 20
85.116545850070224
 30
0.0
 40
1.5
  0
CIRCLE
  5
38E
  8
0
 10
335.84896730055982
 20
74.616545850070224
 30
0.0
 40
1.5
  0
LINE
  5
38F
  8
0
 10
339.84896730055982
 20
69.616545850070224
 30
0.0
 11
339.84896730055982
 21
78.616545850070224
 31
0.0
  0
LINE
  5
390
  8
0
 10
380.84896730055988
 20
69.616545850070224
 30
0.0
 11
339.84896730055982
 21
69.616545850070224
 31
0.0
  0
LINE
  5
391
  8
0
 10
380.84896730055988
 20
90.116545850070267
 30
0.0
 11
380.84896730055988
 21
81.116545850070224
 31
0.0
  0
LINE
  5
392
  8
0
 10
339.84896730055982
 20
90.116545850070267
 30
0.0
 11
380.84896730055988
 21
90.116545850070267
 31
0.0
  0
ARC
  5
393
  8
0
 10
211.34896730055991
 20
67.866545850070224
 30
0.0
 40
2.0
 50
180.0
 51
270.0
  0
LINE
  5
394
  8
0
 10
211.34896730055991
 20
65.866545850070224
 30
0.0
 11
265.34896730055988
 21
65.866545850070224
 31
0.0
  0
ARC
  5
395
  8
0
 10
265.34896730055988
 20
67.866545850070224
 30
0.0
 40
2.0
 50
270.0
 51
0.0
  0
ARC
  5
396
  8
0
 10
269.34896730055988
 20
67.866545850070224
 30
0.0
 40
2.0
 50
90.0
 51
180.0
  0
LINE
  5
397
  8
0
 10
389.34896730055988
 20
67.866545850070224
 30
0.0
 11
389.34896730055988
 21
91.86654585007021
 31
0.0
  0
LINE
  5
398
  8
0
 10
387.34896730055988
 20
65.866545850070224
 30
0.0
 11
333.34896730055982
 21
65.866545850070224
 31
0.0
  0
ARC
  5
399
  8
0
 10
387.34896730055988
 20
67.866545850070224
 30
0.0
 40
2.0
 50
270.0
 51
0.0
  0
LINE
  5
39A
  8
0
 10
331.34896730055982
 20
67.866545850070224
 30
0.0
 11
331.34896730055982
 21
67.86654585007021
 31
0.0
  0
ARC
  5
39B
  8
0
 10
333.34896730055982
 20
67.866545850070224
 30
0.0
 40
2.0
 50
180.0
 51
270.0
  0
LINE
  5
39C
  8
0
 10
329.34896730055982
 20
69.86654585007021
 30
0.0
 11
269.34896730055988
 21
69.866545850070224
 31
0.0
  0
ARC
  5
39D
  8
0
 10
329.34896730055982
 20
67.86654585007021
 30
0.0
 40
2.0
 50
0.0
 51
90.0
  0
CIRCLE
  5
39E
  8
0
 10
269.34896730055988
 20
79.866545850070224
 30
0.0
 40
1.5
  0
CIRCLE
  5
39F
  8
0
 10
329.34896730055982
 20
79.866545850070224
 30
0.0
 40
1.5
  0
CIRCLE
  5
3A0
  8
0
 10
384.84896730055999
 20
69.616545850070224
 30
0.0
 40
1.5
  0
LINE
  5
3A1
  8
0
 10
384.34896730055988
 20
78.616545850070224
 30
0.0
 11
384.34896730055988
 21
81.116545850070224
 31
0.0
  0
LINE
  5
3A2
  8
0
 10
384.34896730055988
 20
81.116545850070224
 30
0.0
 11
380.84896730055988
 21
81.116545850070224
 31
0.0
  0
LINE
  5
3A3
  8
0
 10
384.34896730055988
 20
78.616545850070224
 30
0.0
 11
380.84896730055988
 21
78.616545850070224
 31
0.0
  0
LINE
  5
3A4
  8
0
 10
262.34896730055988
 20
78.616545850070224
 30
0.0
 11
262.34896730055988
 21
81.116545850070224
 31
0.0
  0
LINE
  5
3A5
  8
0
 10
262.34896730055988
 20
81.116545850070224
 30
0.0
 11
258.84896730055988
 21
81.116545850070224
 31
0.0
  0
LINE
  5
3A6
  8
0
 10
262.34896730055988
 20
78.616545850070224
 30
0.0
 11
258.84896730055988
 21
78.616545850070224
 31
0.0
  0
LINE
  5
3A7
  8
0
 10
214.34896730055991
 20
78.616545850070224
 30
0.0
 11
214.34896730055991
 21
81.116545850070224
 31
0.0
  0
LINE
  5
3A8
  8
0
 10
214.34896730055991
 20
81.116545850070224
 30
0.0
 11
217.84896730055999
 21
81.116545850070224
 31
0.0
  0
LINE
  5
3A9
  8
0
 10
214.34896730055991
 20
78.616545850070224
 30
0.0
 11
217.84896730055999
 21
78.616545850070224
 31
0.0
  0
LINE
  5
3AA
  8
0
 10
336.34896730055982
 20
78.616545850070224
 30
0.0
 11
336.34896730055982
 21
81.116545850070224
 31
0.0
  0
LINE
  5
3AB
  8
0
 10
336.34896730055982
 20
81.116545850070224
 30
0.0
 11
339.84896730055982
 21
81.116545850070224
 31
0.0
  0
LINE
  5
3AC
  8
0
 10
336.34896730055982
 20
78.616545850070224
 30
0.0
 11
339.84896730055982
 21
78.616545850070224
 31
0.0
  0
LINE
  5
3AD
  8
0
 10
217.84896730055999
 20
81.116545850070224
 30
0.0
 11
217.84896730055999
 21
90.116545850070267
 31
0.0
  0
LINE
  5
3AE
  8
0
 10
258.84896730055988
 20
78.616545850070224
 30
0.0
 11
258.84896730055988
 21
69.61654585007021
 31
0.0
  0
LINE
  5
3AF
  8
0
 10
339.84896730055982
 20
81.116545850070224
 30
0.0
 11
339.84896730055982
 21
90.116545850070267
 31
0.0
  0
LINE
  5
3B0
  8
0
 10
380.84896730055988
 20
78.616545850070224
 30
0.0
 11
380.84896730055988
 21
69.616545850070224
 31
0.0
  0
LINE
  5
3EE
  8
0
 10
210.83424768424561
 20
105.1649714235561
 30
0.0
 11
210.83424768424561
 21
129.1649714235561
 31
0.0
  0
LINE
  5
3EF
  8
0
 10
212.83424768424561
 20
131.1649714235561
 30
0.0
 11
266.83424768424561
 21
131.1649714235561
 31
0.0
  0
LINE
  5
3F0
  8
0
 10
388.83424768424561
 20
131.1649714235561
 30
0.0
 11
334.8342476842455
 21
131.1649714235561
 31
0.0
  0
LINE
  5
3F1
  8
0
 10
332.8342476842455
 20
129.1649714235561
 30
0.0
 11
332.8342476842455
 21
129.1649714235561
 31
0.0
  0
LINE
  5
3F2
  8
0
 10
330.8342476842455
 20
127.1649714235561
 30
0.0
 11
270.83424768424561
 21
127.1649714235561
 31
0.0
  0
ARC
  5
3F3
  8
0
 10
212.83424768424561
 20
129.1649714235561
 30
0.0
 40
2.0
 50
90.0
 51
180.0
  0
ARC
  5
3F4
  8
0
 10
266.83424768424561
 20
129.1649714235561
 30
0.0
 40
2.0
 50
0.0
 51
90.0
  0
ARC
  5
3F5
  8
0
 10
270.83424768424561
 20
129.1649714235561
 30
0.0
 40
2.0
 50
180.0
 51
270.0
  0
ARC
  5
3F6
  8
0
 10
334.8342476842455
 20
129.1649714235561
 30
0.0
 40
2.0
 50
90.0
 51
180.0
  0
ARC
  5
3F7
  8
0
 10
330.8342476842455
 20
129.1649714235561
 30
0.0
 40
2.0
 50
270.0
 51
0.0
  0
ARC
  5
3F8
  8
0
 10
388.83424768424561
 20
129.1649714235561
 30
0.0
 40
2.0
 50
0.0
 51
90.0
  0
CIRCLE
  5
3F9
  8
0
 10
264.33424768424561
 20
122.4149714235561
 30
0.0
 40
1.5
  0
CIRCLE
  5
3FA
  8
0
 10
264.33424768424561
 20
111.9149714235561
 30
0.0
 40
1.5
  0
CIRCLE
  5
3FB
  8
0
 10
215.33424768424561
 20
122.4149714235561
 30
0.0
 40
1.5
  0
CIRCLE
  5
3FC
  8
0
 10
215.33424768424561
 20
111.9149714235561
 30
0.0
 40
1.5
  0
LINE
  5
3FD
  8
0
 10
219.33424768424561
 20
106.9149714235561
 30
0.0
 11
219.33424768424561
 21
115.9149714235561
 31
0.0
  0
LINE
  5
3FE
  8
0
 10
260.33424768424561
 20
106.9149714235561
 30
0.0
 11
219.33424768424561
 21
106.9149714235561
 31
0.0
  0
LINE
  5
3FF
  8
0
 10
260.33424768424561
 20
127.4149714235561
 30
0.0
 11
260.33424768424561
 21
118.4149714235561
 31
0.0
  0
LINE
  5
400
  8
0
 10
219.33424768424561
 20
127.4149714235561
 30
0.0
 11
260.33424768424561
 21
127.4149714235561
 31
0.0
  0
CIRCLE
  5
401
  8
0
 10
386.33424768424561
 20
122.4149714235561
 30
0.0
 40
1.5
  0
CIRCLE
  5
402
  8
0
 10
386.33424768424561
 20
111.9149714235561
 30
0.0
 40
1.5
  0
CIRCLE
  5
403
  8
0
 10
337.3342476842455
 20
122.4149714235561
 30
0.0
 40
1.5
  0
CIRCLE
  5
404
  8
0
 10
337.3342476842455
 20
111.9149714235561
 30
0.0
 40
1.5
  0
LINE
  5
405
  8
0
 10
341.3342476842455
 20
106.9149714235561
 30
0.0
 11
341.3342476842455
 21
115.9149714235562
 31
0.0
  0
LINE
  5
406
  8
0
 10
382.33424768424561
 20
106.9149714235561
 30
0.0
 11
341.3342476842455
 21
106.9149714235561
 31
0.0
  0
LINE
  5
407
  8
0
 10
382.33424768424561
 20
127.4149714235562
 30
0.0
 11
382.33424768424561
 21
118.4149714235561
 31
0.0
  0
LINE
  5
408
  8
0
 10
341.3342476842455
 20
127.4149714235562
 30
0.0
 11
382.33424768424561
 21
127.4149714235562
 31
0.0
  0
ARC
  5
409
  8
0
 10
212.83424768424561
 20
105.1649714235561
 30
0.0
 40
2.0
 50
180.0
 51
270.0
  0
LINE
  5
40A
  8
0
 10
212.83424768424561
 20
103.1649714235561
 30
0.0
 11
266.83424768424561
 21
103.1649714235561
 31
0.0
  0
ARC
  5
40B
  8
0
 10
266.83424768424561
 20
105.1649714235561
 30
0.0
 40
2.0
 50
270.0
 51
0.0
  0
ARC
  5
40C
  8
0
 10
270.83424768424561
 20
105.1649714235561
 30
0.0
 40
2.0
 50
90.0
 51
180.0
  0
LINE
  5
40D
  8
0
 10
390.83424768424561
 20
105.1649714235561
 30
0.0
 11
390.83424768424561
 21
129.1649714235561
 31
0.0
  0
LINE
  5
40E
  8
0
 10
388.83424768424561
 20
103.1649714235561
 30
0.0
 11
334.8342476842455
 21
103.1649714235561
 31
0.0
  0
ARC
  5
40F
  8
0
 10
388.83424768424561
 20
105.1649714235561
 30
0.0
 40
2.0
 50
270.0
 51
0.0
  0
LINE
  5
410
  8
0
 10
332.8342476842455
 20
105.1649714235561
 30
0.0
 11
332.8342476842455
 21
105.1649714235561
 31
0.0
  0
ARC
  5
411
  8
0
 10
334.8342476842455
 20
105.1649714235561
 30
0.0
 40
2.0
 50
180.0
 51
270.0
  0
LINE
  5
412
  8
0
 10
330.8342476842455
 20
107.1649714235561
 30
0.0
 11
270.83424768424561
 21
107.1649714235561
 31
0.0
  0
ARC
  5
413
  8
0
 10
330.8342476842455
 20
105.1649714235561
 30
0.0
 40
2.0
 50
0.0
 51
90.0
  0
CIRCLE
  5
414
  8
0
 10
270.83424768424561
 20
117.1649714235561
 30
0.0
 40
1.5
  0
CIRCLE
  5
415
  8
0
 10
330.8342476842455
 20
117.1649714235561
 30
0.0
 40
1.5
  0
CIRCLE
  5
416
  8
0
 10
386.33424768424561
 20
106.9149714235561
 30
0.0
 40
1.5
  0
LINE
  5
417
  8
0
 10
385.83424768424561
 20
115.9149714235562
 30
0.0
 11
385.83424768424561
 21
118.4149714235561
 31
0.0
  0
LINE
  5
418
  8
0
 10
385.83424768424561
 20
118.4149714235561
 30
0.0
 11
382.33424768424561
 21
118.4149714235561
 31
0.0
  0
LINE
  5
419
  8
0
 10
385.83424768424561
 20
115.9149714235562
 30
0.0
 11
382.33424768424561
 21
115.9149714235562
 31
0.0
  0
LINE
  5
41A
  8
0
 10
263.83424768424561
 20
115.9149714235561
 30
0.0
 11
263.83424768424561
 21
118.4149714235561
 31
0.0
  0
LINE
  5
41B
  8
0
 10
263.83424768424561
 20
118.4149714235561
 30
0.0
 11
260.33424768424561
 21
118.4149714235561
 31
0.0
  0
LINE
  5
41C
  8
0
 10
263.83424768424561
 20
115.9149714235561
 30
0.0
 11
260.33424768424561
 21
115.9149714235561
 31
0.0
  0
LINE
  5
41D
  8
0
 10
215.83424768424561
 20
115.9149714235561
 30
0.0
 11
215.83424768424561
 21
118.4149714235561
 31
0.0
  0
LINE
  5
41E
  8
0
 10
215.83424768424561
 20
118.4149714235561
 30
0.0
 11
219.33424768424561
 21
118.4149714235561
 31
0.0
  0
LINE
  5
41F
  8
0
 10
215.83424768424561
 20
115.9149714235561
 30
0.0
 11
219.33424768424561
 21
115.9149714235561
 31
0.0
  0
LINE
  5
420
  8
0
 10
337.8342476842455
 20
115.9149714235562
 30
0.0
 11
337.8342476842455
 21
118.4149714235561
 31
0.0
  0
LINE
  5
421
  8
0
 10
337.8342476842455
 20
118.4149714235561
 30
0.0
 11
341.3342476842455
 21
118.4149714235561
 31
0.0
  0
LINE
  5
422
  8
0
 10
337.8342476842455
 20
115.9149714235562
 30
0.0
 11
341.3342476842455
 21
115.9149714235562
 31
0.0
  0
LINE
  5
423
  8
0
 10
219.33424768424561
 20
118.4149714235561
 30
0.0
 11
219.33424768424561
 21
127.4149714235561
 31
0.0
  0
LINE
  5
424
  8
0
 10
260.33424768424561
 20
115.9149714235561
 30
0.0
 11
260.33424768424561
 21
106.9149714235561
 31
0.0
  0
LINE
  5
425
  8
0
 10
341.3342476842455
 20
118.4149714235561
 30
0.0
 11
341.3342476842455
 21
127.4149714235562
 31
0.0
  0
LINE
  5
426
  8
0
 10
382.33424768424561
 20
115.9149714235562
 30
0.0
 11
382.33424768424561
 21
106.9149714235561
 31
0.0
  0
LINE
  5
449
  8
0
 10
195.97579114929101
 20
150.91568281664121
 30
0.0
 11
191.97579114929101
 21
150.91568281664121
 31
0.0
  0
LINE
  5
44A
  8
0
 10
191.97579114929101
 20
150.91568281664121
 30
0.0
 11
191.97579114929101
 21
141.91568281664109
 31
0.0
  0
LINE
  5
44B
  8
0
 10
191.97579114929101
 20
141.91568281664109
 30
0.0
 11
195.97579114929101
 21
141.91568281664109
 31
0.0
  0
LINE
  5
44C
  8
0
 10
195.97579114929101
 20
136.91568281664121
 30
0.0
 11
195.97579114929101
 21
141.91568281664109
 31
0.0
  0
LINE
  5
44D
  8
0
 10
195.97579114929101
 20
155.91568281664121
 30
0.0
 11
195.97579114929101
 21
150.91568281664121
 31
0.0
  0
LINE
  5
44E
  8
0
 10
243.9757911492911
 20
150.91568281664121
 30
0.0
 11
247.9757911492911
 21
150.91568281664121
 31
0.0
  0
LINE
  5
44F
  8
0
 10
247.9757911492911
 20
150.91568281664121
 30
0.0
 11
247.9757911492911
 21
141.91568281664109
 31
0.0
  0
LINE
  5
450
  8
0
 10
247.9757911492911
 20
141.91568281664109
 30
0.0
 11
243.9757911492911
 21
141.91568281664109
 31
0.0
  0
LINE
  5
451
  8
0
 10
243.9757911492911
 20
136.91568281664121
 30
0.0
 11
243.9757911492911
 21
141.91568281664109
 31
0.0
  0
LINE
  5
452
  8
0
 10
243.9757911492911
 20
155.91568281664121
 30
0.0
 11
243.9757911492911
 21
150.91568281664121
 31
0.0
  0
LINE
  5
453
  8
0
 10
235.9757911492911
 20
163.91568281664109
 30
0.0
 11
203.9757911492911
 21
163.91568281664109
 31
0.0
  0
LINE
  5
454
  8
0
 10
195.97579114929101
 20
136.91568281664121
 30
0.0
 11
243.9757911492911
 21
136.91568281664121
 31
0.0
  0
CIRCLE
  5
455
  8
0
 10
238.9757911492911
 20
155.21568281664119
 30
0.0
 40
1.5
  0
CIRCLE
  5
456
  8
0
 10
238.9757911492911
 20
145.21568281664119
 30
0.0
 40
1.5
  0
CIRCLE
  5
457
  8
0
 10
210.4757911492911
 20
155.21568281664119
 30
0.0
 40
1.5
  0
CIRCLE
  5
458
  8
0
 10
210.4757911492911
 20
145.21568281664119
 30
0.0
 40
1.5
  0
CIRCLE
  5
459
  8
0
 10
228.4757911492911
 20
184.91568281664121
 30
0.0
 40
1.5
  0
CIRCLE
  5
45A
  8
0
 10
228.4757911492911
 20
174.91568281664121
 30
0.0
 40
1.5
  0
CIRCLE
  5
45B
  8
0
 10
199.97579114929101
 20
184.91568281664121
 30
0.0
 40
1.5
  0
CIRCLE
  5
45C
  8
0
 10
199.97579114929101
 20
174.91568281664121
 30
0.0
 40
1.5
  0
LINE
  5
45D
  8
0
 10
198.97579114929101
 20
169.91568281664121
 30
0.0
 11
229.4757911492911
 21
169.91568281664121
 31
0.0
  0
LINE
  5
45E
  8
0
 10
198.97579114929101
 20
189.9156827550498
 30
0.0
 11
229.4757911492911
 21
189.9156827550498
 31
0.0
  0
LINE
  5
45F
  8
0
 10
232.4757911492911
 20
186.9156827550498
 30
0.0
 11
232.4757911492911
 21
172.91568281664121
 31
0.0
  0
LINE
  5
460
  8
0
 10
195.97579114929101
 20
186.9156827550498
 30
0.0
 11
195.97579114929101
 21
172.91568281664121
 31
0.0
  0
ARC
  5
461
  8
0
 10
198.97579114929101
 20
186.9156827550498
 30
0.0
 40
3.0
 50
90.0
 51
180.0
  0
ARC
  5
462
  8
0
 10
198.97579114929101
 20
172.91568281664121
 30
0.0
 40
3.0
 50
180.0
 51
270.0
  0
ARC
  5
463
  8
0
 10
229.4757911492911
 20
172.91568281664121
 30
0.0
 40
3.0
 50
270.0
 51
0.0
  0
ARC
  5
464
  8
0
 10
229.4757911492911
 20
186.9156827550498
 30
0.0
 40
3.0
 50
0.0
 51
90.0
  0
ARC
  5
465
  8
0
 10
203.9757911492911
 20
155.91568281664121
 30
0.0
 40
8.0
 50
90.0
 51
180.0
  0
ARC
  5
466
  8
0
 10
235.9757911492911
 20
155.91568281664121
 30
0.0
 40
8.0
 50
0.0
 51
90.0
  0
LINE
  5
48D
  8
0
 10
264.98903004966297
 20
145.78007175644609
 30
0.0
 11
264.98903004966297
 21
155.78007175644609
 31
0.0
  0
LINE
  5
48E
  8
0
 10
266.98903004966297
 20
157.78007175644609
 30
0.0
 11
283.39014529865801
 21
157.78007175644609
 31
0.0
  0
LINE
  5
48F
  8
0
 10
266.98903004966297
 20
143.78007175644609
 30
0.0
 11
308.98903004966292
 21
143.78007175644609
 31
0.0
  0
ARC
  5
490
  8
0
 10
308.98903004966292
 20
154.78007175644609
 30
0.0
 40
11.0
 50
270.0
 51
115.7111472899892
  0
LINE
  5
491
  8
0
 10
290.96249939835548
 20
159.2690087564778
 30
0.0
 11
304.21685179109488
 21
164.69099071830081
 31
0.0
  0
LINE
  5
492
  8
0
 10
269.98903004966297
 20
154.48007175644611
 30
0.0
 11
278.98903004966297
 21
154.48007175644611
 31
0.0
  0
LINE
  5
493
  8
0
 10
278.98903004966297
 20
154.48007175644611
 30
0.0
 11
278.98903004966297
 21
150.48007175644611
 31
0.0
  0
LINE
  5
494
  8
0
 10
278.98903004966297
 20
150.48007175644611
 30
0.0
 11
269.98903004966297
 21
150.48007175644611
 31
0.0
  0
LINE
  5
495
  8
0
 10
269.98903004966297
 20
154.48007175644611
 30
0.0
 11
269.98903004966297
 21
150.48007175644611
 31
0.0
  0
CIRCLE
  5
496
  8
0
 10
308.98903004966292
 20
154.78007175644609
 30
0.0
 40
4.0
  0
CIRCLE
  5
49B
  8
0
 10
281.98903004966292
 20
147.88007175644611
 30
0.0
 40
1.5
  0
CIRCLE
  5
49C
  8
0
 10
270.68903004966307
 20
147.88007175644611
 30
0.0
 40
1.5
  0
ARC
  5
49D
  8
0
 10
283.39014529865801
 20
177.78007175644601
 30
0.0
 40
20.0
 50
270.0
 51
292.24808637646032
  0
LINE
  5
49E
  8
0
 10
317.98903004966292
 20
182.87865658983631
 30
0.0
 11
317.98903004966292
 21
172.87865658983631
 31
0.0
  0
LINE
  5
49F
  8
0
 10
315.98903004966292
 20
170.8786565898362
 30
0.0
 11
299.58791480066799
 21
170.8786565898362
 31
0.0
  0
ARC
  5
4A0
  8
0
 10
299.58791480066787
 20
150.87865658983631
 30
0.0
 40
20.0
 50
90.0
 51
112.24808637646029
  0
LINE
  5
4A1
  8
0
 10
315.98903004966292
 20
184.8786565898362
 30
0.0
 11
273.98903004966297
 21
184.87865658983631
 31
0.0
  0
ARC
  5
4A2
  8
0
 10
273.98903004966297
 20
173.87865658983631
 30
0.0
 40
11.0
 50
90.0
 51
295.71114728998919
  0
LINE
  5
4A3
  8
0
 10
292.01556070097052
 20
169.38971958980451
 30
0.0
 11
278.76120830823101
 21
163.96773762798159
 31
0.0
  0
LINE
  5
4A4
  8
0
 10
312.98903004966292
 20
174.17865658983621
 30
0.0
 11
303.98903004966292
 21
174.17865658983621
 31
0.0
  0
LINE
  5
4A5
  8
0
 10
303.98903004966292
 20
174.17865658983621
 30
0.0
 11
303.98903004966292
 21
178.17865658983621
 31
0.0
  0
LINE
  5
4A6
  8
0
 10
303.98903004966292
 20
178.17865658983621
 30
0.0
 11
312.98903004966292
 21
178.17865658983621
 31
0.0
  0
LINE
  5
4A7
  8
0
 10
312.98903004966292
 20
174.17865658983621
 30
0.0
 11
312.98903004966292
 21
178.17865658983621
 31
0.0
  0
CIRCLE
  5
4A8
  8
0
 10
300.98903004966292
 20
180.7786565898362
 30
0.0
 40
1.5
  0
CIRCLE
  5
4A9
  8
0
 10
312.28903004966293
 20
180.7786565898362
 30
0.0
 40
1.5
  0
CIRCLE
  5
4AA
  8
0
 10
273.98903004966297
 20
173.87865658983631
 30
0.0
 40
2.5
  0
ARC
  5
4AB
  8
0
 10
315.98903004966292
 20
172.87865658983631
 30
0.0
 40
2.0
 50
270.0
 51
0.0
  0
ARC
  5
4AC
  8
0
 10
315.98903004966292
 20
182.87865658983631
 30
0.0
 40
2.0
 50
0.0
 51
90.0
  0
ARC
  5
4AD
  8
0
 10
266.98903004966297
 20
155.78007175644609
 30
0.0
 40
2.0
 50
90.0
 51
180.0
  0
ARC
  5
4AE
  8
0
 10
266.98903004966297
 20
145.78007175644609
 30
0.0
 40
2.0
 50
180.0
 51
270.0
  0
CIRCLE
  5
4B5
  8
0
 10
368.3546113149614
 20
154.97727253708709
 30
0.0
 40
10.0
  0
CIRCLE
  5
4BD
  8
0
 10
336.8058484363201
 20
166.0440710748253
 30
0.0
 40
10.0
  0
CIRCLE
  5
4BF
  8
0
 10
368.3546113149614
 20
154.97727253708709
 30
0.0
 40
2.5
  0
CIRCLE
  5
4C0
  8
0
 10
336.8058484363201
 20
166.0440710748253
 30
0.0
 40
2.5
  0
ARC
  5
506
  8
0
 10
227.8219871456518
 20
17.151913610792722
 30
0.0
 40
12.0
 50
90.0
 51
270.0
  0
ARC
  5
507
  8
0
 10
348.8219871456518
 20
17.151913610792722
 30
0.0
 40
12.0
 50
270.0
 51
90.0
  0
LINE
  5
508
  8
0
 10
227.8219871456518
 20
29.151913610792722
 30
0.0
 11
348.8219871456518
 21
29.151913610792722
 31
0.0
  0
LINE
  5
509
  8
0
 10
348.8219871456518
 20
5.1519136107927164
 30
0.0
 11
227.8219871456518
 21
5.1519136107927164
 31
0.0
  0
CIRCLE
  5
50A
  8
0
 10
227.8219871456518
 20
48.03587145707975
 30
0.0
 40
4.0
  0
CIRCLE
  5
50B
  8
0
 10
348.8219871456518
 20
17.151913610792722
 30
0.0
 40
4.0
  0
CIRCLE
  5
510
  8
0
 10
275.8219871456518
 20
10.151913610792709
 30
0.0
 40
1.5
  0
CIRCLE
  5
511
  8
0
 10
275.8219871456518
 20
24.151913610792722
 30
0.0
 40
1.5
  0
CIRCLE
  5
512
  8
0
 10
300.8219871456518
 20
10.151913610792709
 30
0.0
 40
1.5
  0
CIRCLE
  5
513
  8
0
 10
300.8219871456518
 20
24.151913610792722
 30
0.0
 40
1.5
  0
ARC
  5
514
  8
0
 10
227.8219871456518
 20
48.03587145707975
 30
0.0
 40
12.0
 50
90.0
 51
270.0
  0
ARC
  5
515
  8
0
 10
348.8219871456518
 20
48.03587145707975
 30
0.0
 40
12.0
 50
270.0
 51
90.0
  0
LINE
  5
516
  8
0
 10
227.8219871456518
 20
60.03587145707975
 30
0.0
 11
348.8219871456518
 21
60.03587145707975
 31
0.0
  0
LINE
  5
517
  8
0
 10
348.8219871456518
 20
36.035871457079757
 30
0.0
 11
227.8219871456518
 21
36.035871457079757
 31
0.0
  0
CIRCLE
  5
518
  8
0
 10
227.8219871456518
 20
17.151913610792722
 30
0.0
 40
4.0
  0
CIRCLE
  5
51D
  8
0
 10
275.8219871456518
 20
41.03587145707975
 30
0.0
 40
1.5
  0
CIRCLE
  5
51E
  8
0
 10
275.8219871456518
 20
55.03587145707975
 30
0.0
 40
1.5
  0
CIRCLE
  5
51F
  8
0
 10
300.8219871456518
 20
41.03587145707975
 30
0.0
 40
1.5
  0
CIRCLE
  5
520
  8
0
 10
300.8219871456518
 20
55.03587145707975
 30
0.0
 40
1.5
  0
CIRCLE
  5
521
  8
0
 10
348.8219871456518
 20
48.03587145707975
 30
0.0
 40
2.5
  0
ARC
  5
522
  8
0
 10
227.8219871456518
 20
48.03587145707975
 30
0.0
 40
7.899937358332525
 50
253.29847473455359
 51
286.70152526544638
  0
ARC
  5
523
  8
0
 10
227.8219871456518
 20
48.03587145707975
 30
0.0
 40
7.899937358332525
 50
343.29847473455283
 51
16.701525265446381
  0
ARC
  5
524
  8
0
 10
227.8219871456518
 20
48.03587145707975
 30
0.0
 40
7.899937358332525
 50
73.298474734553594
 51
106.70152526544641
  0
ARC
  5
525
  8
0
 10
227.8219871456518
 20
48.03587145707975
 30
0.0
 40
7.899937358332525
 50
163.2984747345528
 51
196.70152526544709
  0
ARC
  5
526
  8
0
 10
227.8219871456518
 20
48.03587145707975
 30
0.0
 40
6.9000717195129262
 50
253.15090073837899
 51
286.84909926162101
  0
ARC
  5
527
  8
0
 10
227.8219871456518
 20
48.03587145707975
 30
0.0
 40
6.9000717195129262
 50
343.15090073837848
 51
16.849099261621522
  0
ARC
  5
528
  8
0
 10
227.8219871456518
 20
48.03587145707975
 30
0.0
 40
6.9000717195129262
 50
73.150900738378994
 51
106.84909926162101
  0
ARC
  5
529
  8
0
 10
227.8219871456518
 20
48.03587145707975
 30
0.0
 40
6.9000717195129262
 50
163.1509007383784
 51
196.84909926162149
  0
ARC
  5
52A
  8
0
 10
229.8219871456518
 20
40.912651207305473
 30
0.0
 40
0.5193585208749063
 50
301.36649786623718
 51
89.999999999996845
  0
ARC
  5
52B
  8
0
 10
225.8219871456518
 20
40.912651207305473
 30
0.0
 40
0.5193585208749063
 50
90.000000000003141
 51
238.63350213376299
  0
ARC
  5
52C
  8
0
 10
220.69876689587741
 20
46.03587145707975
 30
0.0
 40
0.5193585208749063
 50
211.36649786624491
 51
0.0000000000031355
  0
ARC
  5
52D
  8
0
 10
220.69876689587741
 20
50.03587145707975
 30
0.0
 40
0.5193585208749063
 50
359.99999999999682
 51
148.633502133755
  0
ARC
  5
52E
  8
0
 10
234.945207395426
 20
50.03587145707975
 30
0.0
 40
0.5193585208749063
 50
31.366497866244881
 51
180.0000000000031
  0
ARC
  5
52F
  8
0
 10
234.945207395426
 20
46.03587145707975
 30
0.0
 40
0.5193585208749063
 50
179.99999999999679
 51
328.63350213375509
  0
ARC
  5
530
  8
0
 10
225.8219871456518
 20
55.159091706854063
 30
0.0
 40
0.5193585208749063
 50
121.36649786624039
 51
270.0
  0
ARC
  5
531
  8
0
 10
229.8219871456518
 20
55.159091706854063
 30
0.0
 40
0.5193585208749063
 50
270.0
 51
58.633502133759443
  0
CIRCLE
  5
614
  8
0
 10
404.36669754309361
 20
23.6519136107927
 30
0.0
 40
1.5
  0
LINE
  5
615
  8
0
 10
440.0666975430936
 20
9.651913610792576
 30
0.0
 11
440.06669754309399
 21
28.28795258011381
 31
0.0
  0
LINE
  5
616
  8
0
 10
421.60006284152979
 20
44.151913610792718
 30
0.0
 11
410.03333224465842
 21
44.151913610792718
 31
0.0
  0
LINE
  5
617
  8
0
 10
391.56669754309411
 20
28.287952580113771
 30
0.0
 11
391.56669754309371
 21
9.6519136107927181
 31
0.0
  0
CIRCLE
  5
618
  8
0
 10
410.36669754309372
 20
40.621913610792717
 30
0.0
 40
1.5
  0
CIRCLE
  5
619
  8
0
 10
421.56669754309371
 20
40.621913610792717
 30
0.0
 40
1.5
  0
LINE
  5
61A
  8
0
 10
434.16669754309368
 20
30.101913610792721
 30
0.0
 11
411.4666975430938
 21
30.101913610792721
 31
0.0
  0
LINE
  5
61B
  8
0
 10
411.4666975430938
 20
17.201913610792712
 30
0.0
 11
434.16669754309368
 21
17.201913610792712
 31
0.0
  0
LINE
  5
61C
  8
0
 10
434.16669754309368
 20
30.101913610792721
 30
0.0
 11
434.16669754309368
 21
17.201913610792712
 31
0.0
  0
LINE
  5
61D
  8
0
 10
411.4666975430938
 20
30.101913610792721
 30
0.0
 11
411.4666975430938
 21
17.201913610792712
 31
0.0
  0
LINE
  5
61E
  8
0
 10
438.74867805843348
 20
31.46993309545336
 30
0.0
 11
424.44460147301828
 21
43.138832017347582
 31
0.0
  0
LINE
  5
61F
  8
0
 10
407.18879361317022
 20
43.138832017347603
 30
0.0
 11
392.88471702775439
 21
31.469933095453229
 31
0.0
  0
ARC
  5
620
  8
0
 10
435.56669754309399
 20
28.287952580113931
 30
0.0
 40
4.5
 50
359.99999999999841
 51
44.999999999999417
  0
ARC
  5
621
  8
0
 10
396.06669754309388
 20
28.287952580113771
 30
0.0
 40
4.5
 50
135.00000000000031
 51
180.0
  0
ARC
  5
622
  8
0
 10
435.5666975430936
 20
9.6519136107927181
 30
0.0
 40
4.5
 50
270.0
 51
359.99999999999841
  0
ARC
  5
623
  8
0
 10
396.06669754309388
 20
9.6519136107927181
 30
0.0
 40
4.5
 50
180.0
 51
270.0
  0
LINE
  5
624
  8
0
 10
396.06669754309388
 20
5.1519136107927244
 30
0.0
 11
396.06669754309388
 21
9.1519136107927181
 31
0.0
  0
LINE
  5
625
  8
0
 10
396.06669754309388
 20
9.1519136107927181
 30
0.0
 11
402.06669754309371
 21
9.1519136107927181
 31
0.0
  0
LINE
  5
626
  8
0
 10
402.06669754309371
 20
9.1519136107927181
 30
0.0
 11
402.06669754309371
 21
5.1519136107927244
 31
0.0
  0
LINE
  5
627
  8
0
 10
435.5666975430936
 20
5.1519136107927244
 30
0.0
 11
435.5666975430936
 21
9.1519136107927181
 31
0.0
  0
LINE
  5
628
  8
0
 10
435.5666975430936
 20
9.1519136107927181
 30
0.0
 11
429.56669754309343
 21
9.1519136107927181
 31
0.0
  0
LINE
  5
629
  8
0
 10
429.56669754309343
 20
9.1519136107927181
 30
0.0
 11
429.56669754309343
 21
5.1519136107927244
 31
0.0
  0
LINE
  5
62A
  8
0
 10
409.8166975430936
 20
9.1519136107927181
 30
0.0
 11
421.8166975430936
 21
9.1519136107927181
 31
0.0
  0
LINE
  5
62B
  8
0
 10
421.8166975430936
 20
9.1519136107927181
 30
0.0
 11
421.8166975430936
 21
5.1519136107927244
 31
0.0
  0
LINE
  5
62C
  8
0
 10
409.8166975430936
 20
9.1519136107927181
 30
0.0
 11
409.8166975430936
 21
5.1519136107927244
 31
0.0
  0
ARC
  5
62D
  8
0
 10
421.60006284152979
 20
39.651913610792761
 30
0.0
 40
4.5
 50
50.79331642904463
 51
90.0
  0
ARC
  5
62E
  8
0
 10
410.03333224465842
 20
39.651913610792761
 30
0.0
 40
4.5
 50
90.0
 51
129.20668357095539
  0
LINE
  5
62F
  8
0
 10
402.06669754309371
 20
5.1519136107927244
 30
0.0
 11
409.8166975430936
 21
5.1519136107927244
 31
0.0
  0
LINE
  5
630
  8
0
 10
421.8166975430936
 20
5.1519136107927244
 30
0.0
 11
429.56669754309343
 21
5.1519136107927244
 31
0.0
  0
CIRCLE
  5
631
  8
0
 10
408.56669754309371
 20
23.6519136107927
 30
0.0
 40
0.8999999999999984
  0
CIRCLE
  5
632
  8
0
 10
437.06669754309348
 20
23.6519136107927
 30
0.0
 40
0.8999999999999984
  0
CIRCLE
  5
633
  8
0
 10
437.47632892967681
 20
41.999307967138563
 30
0.0
 40
3.0
  0
CIRCLE
  5
634
  8
0
 10
437.47632892967681
 20
41.999307967138563
 30
0.0
 40
1.5
  0
CIRCLE
  5
635
  8
0
 10
460.53660285198509
 20
7.990801366901457
 30
0.0
 40
1.5
  0
CIRCLE
  5
636
  8
0
 10
466.53660285198509
 20
24.96080136690145
 30
0.0
 40
1.5
  0
LINE
  5
637
  8
0
 10
472.03660285198481
 20
27.960801366901471
 30
0.0
 11
472.03660285198481
 21
52.960801366901471
 31
0.0
  0
LINE
  5
638
  8
0
 10
472.03660285198481
 20
52.960801366901471
 30
0.0
 11
465.53660285198509
 21
52.960801366901471
 31
0.0
  0
LINE
  5
639
  8
0
 10
465.53660285198509
 20
52.960801366901471
 30
0.0
 11
465.53660285198509
 21
27.960801366901471
 31
0.0
  0
LINE
  5
63A
  8
0
 10
465.53660285198509
 20
27.960801366901471
 30
0.0
 11
464.03660285198481
 21
27.960801366901471
 31
0.0
  0
LINE
  5
63B
  8
0
 10
457.66808957876282
 20
8.8692270048175601
 30
0.0
 11
464.03660285198481
 21
27.960801366901471
 31
0.0
  0
LINE
  5
63C
  8
0
 10
463.34294854341027
 20
6.930412824800106
 30
0.0
 11
472.03660285198481
 21
27.960801366901471
 31
0.0
  0
ARC
  5
63D
  8
0
 10
460.53660285198509
 20
7.990801366901457
 30
0.0
 40
3.0
 50
162.9738253850293
 51
339.30073477631771
  0
LINE
  5
63E
  8
0
 10
473.37089829991589
 20
95.982882980845929
 30
0.0
 11
502.37089829991589
 21
95.982882980845929
 31
0.0
  0
LINE
  5
63F
  8
0
 10
502.37089829991589
 20
89.982882980845929
 30
0.0
 11
473.37089829991589
 21
89.982882980845929
 31
0.0
  0
ARC
  5
640
  8
0
 10
473.37089829991589
 20
92.982882980845943
 30
0.0
 40
3.0
 50
90.0
 51
270.0
  0
ARC
  5
641
  8
0
 10
502.37089829991589
 20
92.982882980845943
 30
0.0
 40
3.0
 50
270.0
 51
90.0
  0
CIRCLE
  5
642
  8
0
 10
473.37089829991589
 20
92.982882980845943
 30
0.0
 40
1.5
  0
CIRCLE
  5
643
  8
0
 10
502.37089829991589
 20
92.982882980845943
 30
0.0
 40
1.5
  0
LINE
  5
644
  8
0
 10
466.01184986344902
 20
88.520198210724288
 30
0.0
 11
466.01184986344902
 21
65.020198210724331
 31
0.0
  0
LINE
  5
645
  8
0
 10
458.01184986344902
 20
57.020198210724331
 30
0.0
 11
466.01184986344902
 21
65.020198210724331
 31
0.0
  0
LINE
  5
646
  8
0
 10
458.01184986344902
 20
57.020198210724331
 30
0.0
 11
454.01184986344902
 21
57.020198210724331
 31
0.0
  0
LINE
  5
647
  8
0
 10
446.01184986344902
 20
65.020198210724331
 30
0.0
 11
454.01184986344902
 21
57.020198210724331
 31
0.0
  0
LINE
  5
648
  8
0
 10
446.01184986344902
 20
65.020198210724331
 30
0.0
 11
446.01184986344902
 21
88.520198210724203
 31
0.0
  0
LINE
  5
649
  8
0
 10
454.0118498634489
 20
96.520198210724274
 30
0.0
 11
458.01184986344902
 21
96.520198210724345
 31
0.0
  0
LINE
  5
64A
  8
0
 10
446.01184986344902
 20
88.520198210724203
 30
0.0
 11
454.0118498634489
 21
96.520198210724274
 31
0.0
  0
LINE
  5
64B
  8
0
 10
466.01184986344902
 20
88.520198210724288
 30
0.0
 11
458.01184986344902
 21
96.520198210724345
 31
0.0
  0
LINE
  5
64C
  8
0
 10
454.01184986344902
 20
90.520198210724203
 30
0.0
 11
458.01184986344902
 21
90.520198210724203
 31
0.0
  0
LINE
  5
64D
  8
0
 10
458.01184986344902
 20
90.520198210724203
 30
0.0
 11
458.01184986344902
 21
82.770198210724189
 31
0.0
  0
LINE
  5
64E
  8
0
 10
458.01184986344902
 20
82.770198210724189
 30
0.0
 11
454.01184986344902
 21
82.770198210724189
 31
0.0
  0
LINE
  5
64F
  8
0
 10
454.01184986344902
 20
82.770198210724189
 30
0.0
 11
454.01184986344902
 21
90.520198210724203
 31
0.0
  0
LINE
  5
650
  8
0
 10
454.01184986344902
 20
70.770198210724232
 30
0.0
 11
458.01184986344902
 21
70.770198210724232
 31
0.0
  0
LINE
  5
651
  8
0
 10
458.01184986344902
 20
70.770198210724232
 30
0.0
 11
458.01184986344902
 21
63.020198210724317
 31
0.0
  0
LINE
  5
652
  8
0
 10
458.01184986344902
 20
63.020198210724317
 30
0.0
 11
454.01184986344902
 21
63.020198210724317
 31
0.0
  0
LINE
  5
653
  8
0
 10
454.01184986344902
 20
63.020198210724317
 30
0.0
 11
454.01184986344902
 21
70.770198210724232
 31
0.0
  0
CIRCLE
  5
654
  8
0
 10
456.01184986344907
 20
76.770198210724203
 30
0.0
 40
3.0
  0
CIRCLE
  5
655
  8
0
 10
463.01184986344902
 20
78.520198210724189
 30
0.0
 40
0.75
  0
CIRCLE
  5
656
  8
0
 10
463.01184986344902
 20
75.020198210724232
 30
0.0
 40
0.75
  0
LINE
  5
659
  8
0
  6
CONTINUOUS
 62
     7
 10
407.49578073473037
 20
51.302414166583532
 30
0.0
 11
408.60523323547028
 21
49.637377438601852
 31
0.0
  0
ARC
  5
65A
  8
0
  6
CONTINUOUS
 62
     7
 10
406.18983608152649
 20
50.432233024774817
 30
0.0
 40
1.569301327571579
 50
33.676438889400792
 51
114.5369404511995
  0
ARC
  5
65B
  8
0
  6
CONTINUOUS
 62
     7
 10
402.0869375076449
 20
59.419861855948632
 30
0.0
 40
8.3105391915906939
 50
290.46305954880108
 51
294.5369404511996
  0
ARC
  5
65C
  8
0
  6
CONTINUOUS
 62
     7
 10
405.54096339985551
 20
50.163461161619587
 30
0.0
 40
1.569301327571579
 50
110.463059548801
 51
191.3235611105998
  0
LINE
  5
65D
  8
0
  6
CONTINUOUS
 62
     7
 10
404.39506747021358
 20
47.893469679591682
 30
0.0
 11
404.00221009447358
 21
49.855329825072673
 31
0.0
  0
ARC
  5
65E
  8
0
  6
CONTINUOUS
 62
     7
 10
402.0869375076449
 20
47.431272674771343
 30
0.0
 40
2.35395199285594
 50
6.0004867275002107
 51
11.32356111059976
  0
ARC
  5
65F
  8
0
  6
CONTINUOUS
 62
     7
 10
402.0869375076449
 20
47.431272674771343
 30
0.0
 40
2.35395199285594
 50
168.6764388894002
 51
173.9995132724998
  0
LINE
  5
660
  8
0
  6
CONTINUOUS
 62
     7
 10
400.15633227881409
 20
49.778761311902031
 30
0.0
 11
399.77880754807342
 21
47.893469679591682
 31
0.0
  0
ARC
  5
661
  8
0
  6
CONTINUOUS
 62
     7
 10
402.0869375076449
 20
59.419861855948632
 30
0.0
 40
8.3105391915906939
 50
65.463059548800359
 51
68.060832431568514
  0
ARC
  5
662
  8
0
  6
CONTINUOUS
 62
     7
 10
406.18983608152649
 20
68.407490690119644
 30
0.0
 40
1.569301327571579
 50
245.4630595488004
 51
326.3235611105992
  0
LINE
  5
663
  8
0
  6
CONTINUOUS
 62
     7
 10
408.60523323547028
 20
69.202346276292602
 30
0.0
 11
407.49578073473037
 21
67.537309548311114
 31
0.0
  0
ARC
  5
664
  8
0
  6
CONTINUOUS
 62
     7
 10
410.56415021527602
 20
67.897074563579579
 30
0.0
 40
2.35395199285594
 50
141.00048672749921
 51
146.3235611105988
  0
ARC
  5
665
  8
0
  6
CONTINUOUS
 62
     7
 10
410.56415021527602
 20
67.897074563579579
 30
0.0
 40
2.35395199285594
 50
303.67643888939989
 51
308.99951327250068
  0
LINE
  5
666
  8
0
  6
CONTINUOUS
 62
     7
 10
410.2043852000071
 20
64.828705083034251
 30
0.0
 11
411.86942192798881
 21
65.938157583774085
 31
0.0
  0
ARC
  5
667
  8
0
  6
CONTINUOUS
 62
     7
 10
411.07456634181568
 20
63.52276042983064
 30
0.0
 40
1.569301327571579
 50
123.6764388893998
 51
204.53694045119869
  0
ARC
  5
668
  8
0
  6
CONTINUOUS
 62
     7
 10
402.0869375076449
 20
59.419861855948632
 30
0.0
 40
8.3105391915906939
 50
20.463059548799698
 51
24.536940451198731
  0
ARC
  5
669
  8
0
  6
CONTINUOUS
 62
     7
 10
411.34333820497079
 20
62.873887748159497
 30
0.0
 40
1.569301327571579
 50
200.46305954879929
 51
281.32356111059943
  0
LINE
  5
66A
  8
0
  6
CONTINUOUS
 62
     7
 10
413.85942329009691
 20
61.763873226597241
 30
0.0
 11
411.65146954151811
 21
61.335134442777381
 31
0.0
  0
LINE
  5
66B
  8
0
  6
CONTINUOUS
 62
     7
 10
411.65146954151811
 20
57.50458927211713
 30
0.0
 11
413.85942329009691
 21
57.07585048530003
 31
0.0
  0
ARC
  5
66C
  8
0
  6
CONTINUOUS
 62
     7
 10
411.34333820497079
 20
55.965835966735
 30
0.0
 40
1.569301327571579
 50
78.676438889400643
 51
159.53694045120031
  0
ARC
  5
66D
  8
0
  6
CONTINUOUS
 62
     7
 10
402.0869375076449
 20
59.419861855948632
 30
0.0
 40
8.3105391915906939
 50
335.4630595488008
 51
339.53694045120028
  0
ARC
  5
66E
  8
0
  6
CONTINUOUS
 62
     7
 10
411.07456634181568
 20
55.316963285064091
 30
0.0
 40
1.569301327571579
 50
155.4630595487985
 51
236.3235611106
  0
LINE
  5
66F
  8
0
  6
CONTINUOUS
 62
     7
 10
411.86942192798881
 20
52.901566131120383
 30
0.0
 11
410.2043852000071
 21
54.011018631860317
 31
0.0
  0
ARC
  5
670
  8
0
  6
CONTINUOUS
 62
     7
 10
410.56415021527602
 20
50.94264915131496
 30
0.0
 40
2.35395199285594
 50
51.000486727501489
 51
56.323561110600117
  0
ARC
  5
671
  8
0
  6
CONTINUOUS
 62
     7
 10
410.56415021527602
 20
50.94264915131496
 30
0.0
 40
2.35395199285594
 50
213.6764388894002
 51
218.99951327250079
  0
ARC
  5
672
  8
0
  6
CONTINUOUS
 62
     7
 10
402.0869375076449
 20
47.431272674771343
 30
0.0
 40
2.35395199285594
 50
174.73257250899991
 51
5.267427491000066
  0
ARC
  5
673
  8
0
  6
CONTINUOUS
 62
     7
 10
414.07552668882198
 20
59.419861855948632
 30
0.0
 40
2.35395199285594
 50
264.73257250899991
 51
95.267427491000063
  0
ARC
  5
674
  8
0
  6
CONTINUOUS
 62
     7
 10
410.56415021527602
 20
67.897074563579579
 30
0.0
 40
2.35395199285594
 50
309.73257250899968
 51
140.26742749099699
  0
ARC
  5
675
  8
0
  6
CONTINUOUS
 62
     7
 10
410.56415021527602
 20
50.94264915131496
 30
0.0
 40
2.35395199285594
 50
219.73257250900059
 51
50.267427491000262
  0
ARC
  5
676
  8
0
  6
CONTINUOUS
 62
     7
 10
410.56415021527602
 20
67.897074563579579
 30
0.0
 40
2.35395199285594
 50
308.99951327250068
 51
309.73257250899968
  0
ARC
  5
677
  8
0
  6
CONTINUOUS
 62
     7
 10
410.56415021527602
 20
67.897074563579579
 30
0.0
 40
2.35395199285594
 50
140.26742749099699
 51
141.00048672749921
  0
ARC
  5
678
  8
0
  6
CONTINUOUS
 62
     7
 10
402.0869375076449
 20
47.431272674771343
 30
0.0
 40
2.35395199285594
 50
173.9995132724998
 51
174.73257250899991
  0
ARC
  5
679
  8
0
  6
CONTINUOUS
 62
     7
 10
402.0869375076449
 20
47.431272674771343
 30
0.0
 40
2.35395199285594
 50
5.267427491000066
 51
6.0004867275002107
  0
ARC
  5
67A
  8
0
  6
CONTINUOUS
 62
     7
 10
410.56415021527602
 20
50.94264915131496
 30
0.0
 40
2.35395199285594
 50
218.99951327250079
 51
219.73257250900059
  0
ARC
  5
67B
  8
0
  6
CONTINUOUS
 62
     7
 10
410.56415021527602
 20
50.94264915131496
 30
0.0
 40
2.35395199285594
 50
50.267427491000262
 51
51.000486727501489
  0
LINE
  5
67C
  8
0
 10
405.19193750764549
 20
88.419861855948355
 30
0.0
 11
405.19193750764549
 21
67.128560621302
 31
0.0
  0
LINE
  5
67D
  8
0
 10
398.98193750764563
 20
88.419861855948355
 30
0.0
 11
398.98193750764563
 21
68.749225781211422
 31
0.0
  0
ARC
  5
67E
  8
0
 10
402.08693750764559
 20
59.419861855948319
 30
0.0
 40
9.8324999999999996
 50
108.4084801705864
 51
258.6764388944494
  0
CIRCLE
  5
67F
  8
0
 10
402.08693750764559
 20
59.419861855948319
 30
0.0
 40
1.5
  0
CIRCLE
  5
680
  8
0
 10
402.08693750764559
 20
88.419861855948355
 30
0.0
 40
1.5
  0
ARC
  5
681
  8
0
 10
402.08693750764559
 20
88.419861855948355
 30
0.0
 40
3.1049999999999982
 50
0.0
 51
180.0
  0
LINE
  5
682
  8
0
 10
423.9550717183111
 20
75.680719807539546
 30
0.0
 11
423.9550717183111
 21
87.247450404410884
 31
0.0
  0
CIRCLE
  5
683
  8
0
 10
420.42507171831107
 20
86.914085105975573
 30
0.0
 40
1.5
  0
CIRCLE
  5
684
  8
0
 10
420.42507171831107
 20
75.714085105975684
 30
0.0
 40
1.5
  0
LINE
  5
685
  8
0
 10
419.78323343143143
 20
68.964085105975215
 30
0.0
 11
422.94199012486598
 21
72.836181176051213
 31
0.0
  0
LINE
  5
686
  8
0
 10
422.94199012486598
 20
90.09198903589926
 30
0.0
 11
419.7832334314316
 21
93.964085105975215
 31
0.0
  0
ARC
  5
687
  8
0
 10
419.4550717183111
 20
75.680719807539546
 30
0.0
 40
4.5
 50
320.79331642904401
 51
0.0
  0
ARC
  5
688
  8
0
 10
419.4550717183111
 20
87.247450404410884
 30
0.0
 40
4.5
 50
0.0
 51
39.206683570955697
  0
LINE
  5
689
  8
0
 10
417.4550717183111
 20
93.964085105975215
 30
0.0
 11
417.4550717183111
 21
68.964085105975215
 31
0.0
  0
LINE
  5
68A
  8
0
 10
417.4550717183111
 20
68.964085105975215
 30
0.0
 11
419.78323343143143
 21
68.964085105975215
 31
0.0
  0
LINE
  5
68B
  8
0
 10
417.4550717183111
 20
93.964085105975215
 30
0.0
 11
419.7832334314316
 21
93.964085105975215
 31
0.0
  0
LINE
  5
68C
  8
0
 10
436.76336635223589
 20
87.827434247536772
 30
0.0
 11
436.76336635223589
 21
68.156798172799895
 31
0.0
  0
LINE
  5
68D
  8
0
 10
430.55336635223603
 20
87.827434247536772
 30
0.0
 11
430.55336635223603
 21
72.257398406793513
 31
0.0
  0
LINE
  5
68E
  8
0
  6
CONTINUOUS
 62
     7
 10
431.379841058279
 20
47.295153334059741
 30
0.0
 11
431.75252355996179
 21
49.181408148612078
 31
0.0
  0
ARC
  5
68F
  8
0
  6
CONTINUOUS
 62
     7
 10
429.07053189516779
 20
47.751422079360658
 30
0.0
 40
2.35395199285594
 50
343.50048672750052
 51
348.82356111059852
  0
ARC
  5
690
  8
0
  6
CONTINUOUS
 62
     7
 10
429.07053189516779
 20
47.751422079360658
 30
0.0
 40
2.35395199285594
 50
146.1764388894031
 51
151.49951327249849
  0
LINE
  5
691
  8
0
  6
CONTINUOUS
 62
     7
 10
428.22869726239662
 20
50.723901950835099
 30
0.0
 11
427.11497299946109
 21
49.061719525753787
 31
0.0
  0
ARC
  5
692
  8
0
  6
CONTINUOUS
 62
     7
 10
426.92499133545891
 20
51.597433582462877
 30
0.0
 40
1.569301327571579
 50
326.17643888940319
 51
47.036940451199598
  0
ARC
  5
693
  8
0
  6
CONTINUOUS
 62
     7
 10
433.65836635223587
 20
58.827434247536793
 30
0.0
 40
8.3105391915906939
 50
222.96305954879981
 51
227.0369404511996
  0
ARC
  5
694
  8
0
  6
CONTINUOUS
 62
     7
 10
426.42836568477281
 20
52.09405923073659
 30
0.0
 40
1.569301327571579
 50
42.963059548799812
 51
123.8235611105998
  0
LINE
  5
695
  8
0
  6
CONTINUOUS
 62
     7
 10
423.89265162740679
 20
52.284040896765553
 30
0.0
 11
425.55483405521198
 21
53.397765159597881
 31
0.0
  0
ARC
  5
696
  8
0
  6
CONTINUOUS
 62
     7
 10
422.5823541830656
 20
54.239599790057142
 30
0.0
 40
2.35395199285594
 50
298.50048672749989
 51
303.82356111059983
  0
ARC
  5
697
  8
0
  6
CONTINUOUS
 62
     7
 10
422.5823541830656
 20
54.239599790057142
 30
0.0
 40
2.35395199285594
 50
101.17643888939951
 51
106.4995132724995
  0
LINE
  5
698
  8
0
  6
CONTINUOUS
 62
     7
 10
424.08894788176548
 20
56.936727440427362
 30
0.0
 11
422.12608543687458
 21
56.548908952778319
 31
0.0
  0
ARC
  5
699
  8
0
  6
CONTINUOUS
 62
     7
 10
423.7847687176382
 20
58.476266882241319
 30
0.0
 40
1.569301327571579
 50
281.17643888939938
 51
2.0369404512004441
  0
ARC
  5
69A
  8
0
  6
CONTINUOUS
 62
     7
 10
433.65836635223587
 20
58.827434247536793
 30
0.0
 40
8.3105391915906939
 50
177.96305954879941
 51
182.03694045120039
  0
ARC
  5
69B
  8
0
  6
CONTINUOUS
 62
     7
 10
423.78476871934402
 20
59.17860161115847
 30
0.0
 40
1.569301327571579
 50
357.96305954879961
 51
78.823561110600522
  0
LINE
  5
69C
  8
0
  6
CONTINUOUS
 62
     7
 10
422.12608543761218
 20
61.105959538724633
 30
0.0
 11
424.08894788064941
 21
60.718141053074227
 31
0.0
  0
ARC
  5
69D
  8
0
  6
CONTINUOUS
 62
     7
 10
422.58235418406008
 20
63.415268704604607
 30
0.0
 40
2.35395199285594
 50
253.50048672750049
 51
258.82356111060062
  0
ARC
  5
69E
  8
0
  6
CONTINUOUS
 62
     7
 10
422.58235418406008
 20
63.415268704604607
 30
0.0
 40
2.35395199285594
 50
56.176438889400217
 51
61.499513272500131
  0
LINE
  5
69F
  8
0
  6
CONTINUOUS
 62
     7
 10
425.55483405438719
 20
64.257103334607194
 30
0.0
 11
423.8926516293065
 21
65.370827597542203
 31
0.0
  0
ARC
  5
6A0
  8
0
  6
CONTINUOUS
 62
     7
 10
426.42836568601541
 20
65.560809261544577
 30
0.0
 40
1.569301327571579
 50
236.1764388894002
 51
317.03694045120028
  0
ARC
  5
6A1
  8
0
  6
CONTINUOUS
 62
     7
 10
433.65836635223587
 20
58.827434247536793
 30
0.0
 40
8.3105391915906939
 50
132.9630595488004
 51
137.03694045120019
  0
ARC
  5
6A2
  8
0
  6
CONTINUOUS
 62
     7
 10
426.9249913342893
 20
66.057434912230761
 30
0.0
 40
1.569301327571579
 50
312.96305954880029
 51
33.823561110596863
  0
LINE
  5
6A3
  8
0
  6
CONTINUOUS
 62
     7
 10
427.1149730003176
 20
68.593148969596584
 30
0.0
 11
428.2286972631502
 21
66.930966541791676
 31
0.0
  0
ARC
  5
6A4
  8
0
  6
CONTINUOUS
 62
     7
 10
429.07053189360909
 20
69.903446413937615
 30
0.0
 40
2.35395199285594
 50
208.50048672750259
 51
213.82356111060241
  0
ARC
  5
6A5
  8
0
  6
CONTINUOUS
 62
     7
 10
429.07053189516779
 20
47.751422079360658
 30
0.0
 40
2.35395199285594
 50
152.23257250899911
 51
342.7674274909981
  0
ARC
  5
6A6
  8
0
  6
CONTINUOUS
 62
     7
 10
422.58235418406008
 20
63.415268704604607
 30
0.0
 40
2.35395199285594
 50
62.23257250899772
 51
252.7674274909985
  0
ARC
  5
6A7
  8
0
  6
CONTINUOUS
 62
     7
 10
422.5823541830656
 20
54.239599790057142
 30
0.0
 40
2.35395199285594
 50
107.2325725090014
 51
297.76742749099878
  0
ARC
  5
6A8
  8
0
  6
CONTINUOUS
 62
     7
 10
429.07053189360909
 20
69.903446413937615
 30
0.0
 40
2.35395199285594
 50
90.0
 51
207.76742749100171
  0
ARC
  5
6A9
  8
0
  6
CONTINUOUS
 62
     7
 10
422.5823541830656
 20
54.239599790057142
 30
0.0
 40
2.35395199285594
 50
106.4995132724995
 51
107.2325725090014
  0
ARC
  5
6AA
  8
0
  6
CONTINUOUS
 62
     7
 10
422.5823541830656
 20
54.239599790057142
 30
0.0
 40
2.35395199285594
 50
297.76742749099878
 51
298.50048672749989
  0
ARC
  5
6AB
  8
0
  6
CONTINUOUS
 62
     7
 10
429.07053189516779
 20
47.751422079360658
 30
0.0
 40
2.35395199285594
 50
151.49951327249849
 51
152.23257250899911
  0
ARC
  5
6AC
  8
0
  6
CONTINUOUS
 62
     7
 10
429.07053189516779
 20
47.751422079360658
 30
0.0
 40
2.35395199285594
 50
342.7674274909981
 51
343.50048672750052
  0
ARC
  5
6AD
  8
0
  6
CONTINUOUS
 62
     7
 10
429.07053189360909
 20
69.903446413937615
 30
0.0
 40
2.35395199285594
 50
207.76742749100171
 51
208.50048672750259
  0
ARC
  5
6AE
  8
0
  6
CONTINUOUS
 62
     7
 10
422.58235418406008
 20
63.415268704604607
 30
0.0
 40
2.35395199285594
 50
61.499513272500131
 51
62.232572508898279
  0
ARC
  5
6AF
  8
0
  6
CONTINUOUS
 62
     7
 10
422.58235418406008
 20
63.415268704604607
 30
0.0
 40
2.35395199285594
 50
252.7674274909985
 51
253.50048672750049
  0
ARC
  5
6B0
  8
0
 10
433.65836635223587
 20
58.827434247536793
 30
0.0
 40
9.8324999999999996
 50
258.82356110211828
 51
71.591519829413585
  0
LINE
  5
6B1
  8
0
 10
429.07053189360909
 20
72.257398406793513
 30
0.0
 11
430.55336635223603
 21
72.257398406793513
 31
0.0
  0
CIRCLE
  5
6B2
  8
0
 10
433.65836635223587
 20
87.827434247536772
 30
0.0
 40
1.5
  0
ARC
  5
6B3
  8
0
 10
433.65836635223587
 20
87.827434247536772
 30
0.0
 40
3.1050000000000182
 50
0.0
 51
180.0
  0
CIRCLE
  5
6B4
  8
0
 10
488.56669754309343
 20
8.1519136107927181
 30
0.0
 40
1.5
  0
CIRCLE
  5
6B5
  8
0
 10
494.56669754309371
 20
25.121913610792699
 30
0.0
 40
1.5
  0
LINE
  5
6B6
  8
0
 10
500.06669754309343
 20
28.121913610792721
 30
0.0
 11
500.06669754309343
 21
53.121913610792703
 31
0.0
  0
LINE
  5
6B7
  8
0
 10
500.06669754309343
 20
53.121913610792703
 30
0.0
 11
493.56669754309343
 21
53.121913610792703
 31
0.0
  0
LINE
  5
6B8
  8
0
 10
493.56669754309343
 20
53.121913610792703
 30
0.0
 11
493.56669754309343
 21
28.121913610792721
 31
0.0
  0
LINE
  5
6B9
  8
0
 10
493.56669754309343
 20
28.121913610792721
 30
0.0
 11
492.06669754309343
 21
28.121913610792721
 31
0.0
  0
LINE
  5
6BA
  8
0
 10
485.69818426987109
 20
9.0303392487088292
 30
0.0
 11
492.06669754309343
 21
28.121913610792721
 31
0.0
  0
LINE
  5
6BB
  8
0
 10
491.3730432345186
 20
7.0915250686913671
 30
0.0
 11
500.06669754309343
 21
28.121913610792721
 31
0.0
  0
ARC
  5
6BC
  8
0
 10
488.56669754309343
 20
8.1519136107927181
 30
0.0
 40
3.0
 50
162.9738253850293
 51
339.30073477631771
  0
CIRCLE
  5
6BD
  8
0
 10
474.56669754309348
 20
8.1519136107927181
 30
0.0
 40
1.5
  0
CIRCLE
  5
6BE
  8
0
 10
480.5666975430936
 20
25.121913610792699
 30
0.0
 40
1.5
  0
LINE
  5
6BF
  8
0
 10
486.06669754309371
 20
28.121913610792721
 30
0.0
 11
486.06669754309371
 21
53.121913610792703
 31
0.0
  0
LINE
  5
6C0
  8
0
 10
486.06669754309371
 20
53.121913610792703
 30
0.0
 11
479.56669754309343
 21
53.121913610792703
 31
0.0
  0
LINE
  5
6C1
  8
0
 10
479.56669754309343
 20
53.121913610792703
 30
0.0
 11
479.56669754309343
 21
28.121913610792721
 31
0.0
  0
LINE
  5
6C2
  8
0
 10
479.56669754309343
 20
28.121913610792721
 30
0.0
 11
478.0666975430936
 21
28.121913610792721
 31
0.0
  0
LINE
  5
6C3
  8
0
 10
471.69818426987138
 20
9.0303392487088292
 30
0.0
 11
478.0666975430936
 21
28.121913610792721
 31
0.0
  0
LINE
  5
6C4
  8
0
 10
477.37304323451849
 20
7.0915250686913671
 30
0.0
 11
486.06669754309371
 21
28.121913610792721
 31
0.0
  0
ARC
  5
6C5
  8
0
 10
474.56669754309348
 20
8.1519136107927181
 30
0.0
 40
3.0
 50
162.9738253850293
 51
339.30073477631771
  0
CIRCLE
  5
6C6
  8
0
 10
446.53660285198492
 20
7.990801366901457
 30
0.0
 40
1.5
  0
CIRCLE
  5
6C7
  8
0
 10
452.53660285198509
 20
24.96080136690145
 30
0.0
 40
1.5
  0
LINE
  5
6C8
  8
0
 10
458.03660285198492
 20
27.960801366901471
 30
0.0
 11
458.03660285198492
 21
52.960801366901471
 31
0.0
  0
LINE
  5
6C9
  8
0
 10
458.03660285198492
 20
52.960801366901471
 30
0.0
 11
451.53660285198481
 21
52.960801366901471
 31
0.0
  0
LINE
  5
6CA
  8
0
 10
451.53660285198481
 20
52.960801366901471
 30
0.0
 11
451.53660285198481
 21
27.960801366901471
 31
0.0
  0
LINE
  5
6CB
  8
0
 10
451.53660285198481
 20
27.960801366901471
 30
0.0
 11
450.03660285198509
 21
27.960801366901471
 31
0.0
  0
LINE
  5
6CC
  8
0
 10
443.66808957876282
 20
8.8692270048175672
 30
0.0
 11
450.03660285198509
 21
27.960801366901471
 31
0.0
  0
LINE
  5
6CD
  8
0
 10
449.34294854340999
 20
6.930412824800106
 30
0.0
 11
458.03660285198492
 21
27.960801366901471
 31
0.0
  0
ARC
  5
6CE
  8
0
 10
446.53660285198492
 20
7.990801366901457
 30
0.0
 40
3.0
 50
162.9738253850293
 51
339.30073477631771
  0
LINE
  5
6CF
  8
0
 10
473.37089829991589
 20
84.982882980845929
 30
0.0
 11
502.37089829991589
 21
84.982882980845929
 31
0.0
  0
LINE
  5
6D0
  8
0
 10
502.37089829991589
 20
78.982882980845957
 30
0.0
 11
473.37089829991589
 21
78.982882980845957
 31
0.0
  0
ARC
  5
6D1
  8
0
 10
473.37089829991589
 20
81.982882980845957
 30
0.0
 40
3.0
 50
90.0
 51
270.0
  0
ARC
  5
6D2
  8
0
 10
502.37089829991589
 20
81.982882980845957
 30
0.0
 40
3.0
 50
270.0
 51
90.0
  0
CIRCLE
  5
6D3
  8
0
 10
473.37089829991589
 20
81.982882980845957
 30
0.0
 40
1.5
  0
CIRCLE
  5
6D4
  8
0
 10
502.37089829991589
 20
81.982882980845957
 30
0.0
 40
1.5
  0
LINE
  5
6D5
  8
0
 10
473.37089829991589
 20
62.982882980846
 30
0.0
 11
502.37089829991589
 21
62.982882980846
 31
0.0
  0
LINE
  5
6D6
  8
0
 10
502.37089829991589
 20
56.982882980845979
 30
0.0
 11
473.37089829991589
 21
56.982882980845979
 31
0.0
  0
ARC
  5
6D7
  8
0
 10
473.37089829991589
 20
59.982882980845993
 30
0.0
 40
3.0
 50
90.0
 51
270.0
  0
ARC
  5
6D8
  8
0
 10
502.37089829991589
 20
59.982882980845993
 30
0.0
 40
3.0
 50
270.0
 51
90.0
  0
CIRCLE
  5
6D9
  8
0
 10
473.37089829991589
 20
59.982882980845993
 30
0.0
 40
1.5
  0
CIRCLE
  5
6DA
  8
0
 10
502.37089829991589
 20
59.982882980845993
 30
0.0
 40
1.5
  0
LINE
  5
6DB
  8
0
 10
473.37089829991589
 20
73.982882980845986
 30
0.0
 11
502.37089829991589
 21
73.982882980845986
 31
0.0
  0
LINE
  5
6DC
  8
0
 10
502.37089829991589
 20
67.982882980846
 30
0.0
 11
473.37089829991589
 21
67.982882980846
 31
0.0
  0
ARC
  5
6DD
  8
0
 10
473.37089829991589
 20
70.982882980845986
 30
0.0
 40
3.0
 50
90.0
 51
270.0
  0
ARC
  5
6DE
  8
0
 10
502.37089829991589
 20
70.982882980845986
 30
0.0
 40
3.0
 50
270.0
 51
90.0
  0
CIRCLE
  5
6DF
  8
0
 10
473.37089829991589
 20
70.982882980845986
 30
0.0
 40
1.5
  0
CIRCLE
  5
6E0
  8
0
 10
502.37089829991589
 20
70.982882980845986
 30
0.0
 40
1.5
  0
CIRCLE
  5
6E1
  8
0
 10
433.65836635223587
 20
58.827434247536793
 30
0.0
 40
3.0
  0
CIRCLE
  5
6E2
  8
0
 10
431.90836635223587
 20
65.827434247536786
 30
0.0
 40
0.75
  0
CIRCLE
  5
6E3
  8
0
 10
435.40836635223582
 20
65.827434247536786
 30
0.0
 40
0.75
  0
LINE
  5
742
  8
0
 10
128.52224475577799
 20
165.88080820385181
 30
0.0
 11
132.52224475577799
 21
165.88080820385181
 31
0.0
  0
LINE
  5
743
  8
0
 10
128.52224475577799
 20
135.8808082038517
 30
0.0
 11
132.52224475577799
 21
135.8808082038517
 31
0.0
  0
LINE
  5
744
  8
0
 10
128.52224475577799
 20
157.88080820385181
 30
0.0
 11
132.52224475577799
 21
157.88080820385181
 31
0.0
  0
LINE
  5
745
  8
0
 10
132.52224475577799
 20
157.88080820385181
 30
0.0
 11
132.52224475577799
 21
143.88080820385181
 31
0.0
  0
LINE
  5
746
  8
0
 10
132.52224475577799
 20
143.88080820385181
 30
0.0
 11
128.52224475577799
 21
143.88080820385181
 31
0.0
  0
LINE
  5
747
  8
0
 10
132.52224475577799
 20
179.88080820385181
 30
0.0
 11
132.52224475577799
 21
165.88080820385181
 31
0.0
  0
LINE
  5
748
  8
0
 10
132.52224475577799
 20
135.8808082038517
 30
0.0
 11
132.52224475577799
 21
121.8808082038518
 31
0.0
  0
LINE
  5
749
  8
0
 10
128.52224475577799
 20
179.88080820385181
 30
0.0
 11
132.52224475577799
 21
179.88080820385181
 31
0.0
  0
LINE
  5
74A
  8
0
 10
128.52224475577799
 20
121.8808082038518
 30
0.0
 11
132.52224475577799
 21
121.8808082038518
 31
0.0
  0
LINE
  5
74B
  8
0
 10
128.52224475577799
 20
179.88080820385181
 30
0.0
 11
128.52224475577799
 21
184.88080820385181
 31
0.0
  0
LINE
  5
74C
  8
0
 10
128.52224475577799
 20
121.8808082038518
 30
0.0
 11
128.52224475577799
 21
116.8808082038518
 31
0.0
  0
CIRCLE
  5
74D
  8
0
 10
117.522244755778
 20
126.8808082038517
 30
0.0
 40
1.5
  0
CIRCLE
  5
74E
  8
0
 10
107.022244755778
 20
126.8808082038517
 30
0.0
 40
1.5
  0
CIRCLE
  5
74F
  8
0
 10
117.522244755778
 20
174.8808082038519
 30
0.0
 40
1.5
  0
CIRCLE
  5
750
  8
0
 10
107.022244755778
 20
174.8808082038519
 30
0.0
 40
1.5
  0
LINE
  5
751
  8
0
 10
102.022244755778
 20
171.38080820385181
 30
0.0
 11
111.022244755778
 21
171.38080820385181
 31
0.0
  0
LINE
  5
752
  8
0
 10
102.022244755778
 20
130.3808082038517
 30
0.0
 11
102.022244755778
 21
171.38080820385181
 31
0.0
  0
LINE
  5
753
  8
0
 10
122.522244755778
 20
130.3808082038517
 30
0.0
 11
113.522244755778
 21
130.3808082038517
 31
0.0
  0
LINE
  5
754
  8
0
 10
122.522244755778
 20
171.38080820385181
 30
0.0
 11
122.522244755778
 21
130.3808082038517
 31
0.0
  0
LINE
  5
755
  8
0
 10
111.022244755778
 20
126.8808082038517
 30
0.0
 11
113.522244755778
 21
126.8808082038517
 31
0.0
  0
LINE
  5
756
  8
0
 10
113.522244755778
 20
126.8808082038517
 30
0.0
 11
113.522244755778
 21
130.3808082038517
 31
0.0
  0
LINE
  5
757
  8
0
 10
111.022244755778
 20
126.8808082038517
 30
0.0
 11
111.022244755778
 21
130.3808082038517
 31
0.0
  0
LINE
  5
758
  8
0
 10
111.022244755778
 20
174.8808082038519
 30
0.0
 11
113.522244755778
 21
174.8808082038519
 31
0.0
  0
LINE
  5
759
  8
0
 10
113.522244755778
 20
174.8808082038519
 30
0.0
 11
113.522244755778
 21
171.38080820385181
 31
0.0
  0
LINE
  5
75A
  8
0
 10
111.022244755778
 20
174.8808082038519
 30
0.0
 11
111.022244755778
 21
171.38080820385181
 31
0.0
  0
LINE
  5
75B
  8
0
 10
113.522244755778
 20
171.38080820385181
 30
0.0
 11
122.522244755778
 21
171.38080820385181
 31
0.0
  0
LINE
  5
75C
  8
0
 10
111.022244755778
 20
130.3808082038517
 30
0.0
 11
102.022244755778
 21
130.3808082038517
 31
0.0
  0
LINE
  5
75D
  8
0
 10
128.52224475577799
 20
135.8808082038517
 30
0.0
 11
128.52224475577799
 21
143.88080820385181
 31
0.0
  0
LINE
  5
75E
  8
0
 10
128.52224475577799
 20
157.88080820385181
 30
0.0
 11
128.52224475577799
 21
165.88080820385181
 31
0.0
  0
LINE
  5
75F
  8
0
 10
128.52224475577799
 20
184.88080820385181
 30
0.0
 11
105.522244755778
 21
184.88080820385181
 31
0.0
  0
LINE
  5
760
  8
0
 10
95.522244755778047
 20
174.88080820385181
 30
0.0
 11
95.522244755778047
 21
126.8808082038518
 31
0.0
  0
ARC
  5
761
  8
0
 10
105.522244755778
 20
174.88080820385181
 30
0.0
 40
10.0
 50
90.0
 51
180.0
  0
ARC
  5
762
  8
0
 10
105.522244755778
 20
126.8808082038518
 30
0.0
 40
10.0
 50
180.0
 51
270.0
  0
LINE
  5
763
  8
0
 10
105.522244755778
 20
116.8808082038518
 30
0.0
 11
128.52224475577799
 21
116.8808082038518
 31
0.0
  0
CIRCLE
  5
764
  8
0
 10
102.022244755778
 20
123.3808082038518
 30
0.0
 40
1.5
  0
LINE
  5
78D
  8
0
 10
171.5222447557781
 20
166.01766554193989
 30
0.0
 11
175.5222447557781
 21
166.01766554193989
 31
0.0
  0
LINE
  5
78E
  8
0
 10
171.52224475577799
 20
136.01766554193989
 30
0.0
 11
175.52224475577799
 21
136.01766554193989
 31
0.0
  0
LINE
  5
78F
  8
0
 10
171.5222447557781
 20
158.01766554194
 30
0.0
 11
175.5222447557781
 21
158.01766554194
 31
0.0
  0
LINE
  5
790
  8
0
 10
175.5222447557781
 20
158.01766554194
 30
0.0
 11
175.52224475577799
 21
144.01766554193989
 31
0.0
  0
LINE
  5
791
  8
0
 10
175.52224475577799
 20
144.01766554193989
 30
0.0
 11
171.52224475577799
 21
144.01766554193989
 31
0.0
  0
LINE
  5
792
  8
0
 10
175.5222447557781
 20
180.01766554194
 30
0.0
 11
175.5222447557781
 21
166.01766554193989
 31
0.0
  0
LINE
  5
793
  8
0
 10
175.52224475577799
 20
136.01766554193989
 30
0.0
 11
175.52224475577799
 21
122.01766554194
 31
0.0
  0
LINE
  5
794
  8
0
 10
171.5222447557781
 20
180.01766554194
 30
0.0
 11
175.5222447557781
 21
180.01766554194
 31
0.0
  0
LINE
  5
795
  8
0
 10
171.52224475577799
 20
122.01766554194
 30
0.0
 11
175.52224475577799
 21
122.01766554194
 31
0.0
  0
LINE
  5
796
  8
0
 10
171.5222447557781
 20
180.01766554194
 30
0.0
 11
171.5222447557781
 21
185.01766554194
 31
0.0
  0
LINE
  5
797
  8
0
 10
171.52224475577799
 20
122.01766554194
 30
0.0
 11
171.52224475577799
 21
117.01766554193991
 31
0.0
  0
CIRCLE
  5
798
  8
0
 10
160.52224475577799
 20
127.01766554194
 30
0.0
 40
1.5
  0
CIRCLE
  5
799
  8
0
 10
150.02224475577799
 20
127.01766554194
 30
0.0
 40
1.5
  0
CIRCLE
  5
79A
  8
0
 10
160.52224475577799
 20
175.01766554194009
 30
0.0
 40
1.5
  0
CIRCLE
  5
79B
  8
0
 10
150.02224475577799
 20
175.01766554194009
 30
0.0
 40
1.5
  0
LINE
  5
79C
  8
0
 10
145.02224475577799
 20
171.51766554194009
 30
0.0
 11
154.02224475577799
 21
171.51766554194009
 31
0.0
  0
LINE
  5
79D
  8
0
 10
145.02224475577799
 20
130.51766554193989
 30
0.0
 11
145.02224475577799
 21
171.51766554194009
 31
0.0
  0
LINE
  5
79E
  8
0
 10
165.52224475577799
 20
130.51766554193989
 30
0.0
 11
156.52224475577799
 21
130.51766554193989
 31
0.0
  0
LINE
  5
79F
  8
0
 10
165.52224475577799
 20
171.51766554194009
 30
0.0
 11
165.52224475577799
 21
130.51766554193989
 31
0.0
  0
LINE
  5
7A0
  8
0
 10
154.02224475577799
 20
127.01766554194
 30
0.0
 11
156.52224475577799
 21
127.01766554194
 31
0.0
  0
LINE
  5
7A1
  8
0
 10
156.52224475577799
 20
127.01766554194
 30
0.0
 11
156.52224475577799
 21
130.51766554193989
 31
0.0
  0
LINE
  5
7A2
  8
0
 10
154.02224475577799
 20
127.01766554194
 30
0.0
 11
154.02224475577799
 21
130.51766554193989
 31
0.0
  0
LINE
  5
7A3
  8
0
 10
154.02224475577799
 20
175.01766554194009
 30
0.0
 11
156.52224475577799
 21
175.01766554194009
 31
0.0
  0
LINE
  5
7A4
  8
0
 10
156.52224475577799
 20
175.01766554194009
 30
0.0
 11
156.52224475577799
 21
171.51766554194009
 31
0.0
  0
LINE
  5
7A5
  8
0
 10
154.02224475577799
 20
175.01766554194009
 30
0.0
 11
154.02224475577799
 21
171.51766554194009
 31
0.0
  0
LINE
  5
7A6
  8
0
 10
156.52224475577799
 20
171.51766554194009
 30
0.0
 11
165.52224475577799
 21
171.51766554194009
 31
0.0
  0
LINE
  5
7A7
  8
0
 10
154.02224475577799
 20
130.51766554193989
 30
0.0
 11
145.02224475577799
 21
130.51766554193989
 31
0.0
  0
LINE
  5
7A8
  8
0
 10
171.52224475577799
 20
136.01766554193989
 30
0.0
 11
171.52224475577799
 21
144.01766554193989
 31
0.0
  0
LINE
  5
7A9
  8
0
 10
171.5222447557781
 20
158.01766554194
 30
0.0
 11
171.5222447557781
 21
166.01766554193989
 31
0.0
  0
LINE
  5
7AA
  8
0
 10
171.5222447557781
 20
185.01766554194
 30
0.0
 11
148.5222447557781
 21
185.01766554194
 31
0.0
  0
LINE
  5
7AB
  8
0
 10
138.52224475577799
 20
175.01766554194
 30
0.0
 11
138.52224475577799
 21
127.01766554194
 31
0.0
  0
ARC
  5
7AC
  8
0
 10
148.5222447557781
 20
175.01766554194
 30
0.0
 40
10.0
 50
90.0
 51
180.0
  0
ARC
  5
7AD
  8
0
 10
148.52224475577799
 20
127.01766554194
 30
0.0
 40
10.0
 50
180.0
 51
270.0
  0
LINE
  5
7AE
  8
0
 10
148.52224475577799
 20
117.01766554193991
 30
0.0
 11
171.52224475577799
 21
117.01766554193991
 31
0.0
  0
CIRCLE
  5
7AF
  8
0
 10
145.02224475577799
 20
123.51766554193991
 30
0.0
 40
1.5
  0
CIRCLE
  5
803
  8
0
 10
80.999999739540044
 20
52.625000062766937
 30
0.0
 40
1.5
  0
CIRCLE
  5
804
  8
0
 10
80.999999739540044
 20
42.125000062766922
 30
0.0
 40
1.5
  0
CIRCLE
  5
805
  8
0
 10
32.99999973953993
 20
52.625000062766937
 30
0.0
 40
1.5
  0
CIRCLE
  5
806
  8
0
 10
32.99999973953993
 20
42.125000062766922
 30
0.0
 40
1.5
  0
CIRCLE
  5
809
  8
0
 10
32.99999973953993
 20
42.125000062766922
 30
0.0
 40
2.75
  0
CIRCLE
  5
80A
  8
0
 10
32.99999973953993
 20
52.625000062766937
 30
0.0
 40
2.75
  0
CIRCLE
  5
80D
  8
0
 10
80.999999739540044
 20
52.625000062766937
 30
0.0
 40
2.75
  0
CIRCLE
  5
80F
  8
0
 10
80.999999739540044
 20
42.125000062766922
 30
0.0
 40
2.75
  0
CIRCLE
  5
8DB
  8
0
 10
52.399999999999991
 20
147.50809970018761
 30
0.0
 40
0.8
  0
CIRCLE
  5
8E1
  8
0
 10
45.1210251621469
 20
140.1090894346095
 30
0.0
 40
0.8
  0
CIRCLE
  5
8E7
  8
0
 10
37.600000000000023
 20
147.50809970018761
 30
0.0
 40
0.8
  0
CIRCLE
  5
8ED
  8
0
 10
45.0
 20
154.90809970018759
 30
0.0
 40
0.8
  0
CIRCLE
  5
8F3
  8
0
 10
308.98903004966292
 20
162.1800717564461
 30
0.0
 40
0.8
  0
CIRCLE
  5
8F9
  8
0
 10
316.38903004966301
 20
154.78007175644609
 30
0.0
 40
0.8
  0
CIRCLE
  5
8FF
  8
0
 10
301.58903004966288
 20
154.78007175644609
 30
0.0
 40
0.8
  0
CIRCLE
  5
905
  8
0
 10
309.11005521180988
 20
147.38106149086821
 30
0.0
 40
0.8
  0
CIRCLE
  5
90B
  8
0
 10
235.2219871456517
 20
17.151913610792722
 30
0.0
 40
0.8
  0
CIRCLE
  5
911
  8
0
 10
227.8219871456518
 20
9.7519136107927196
 30
0.0
 40
0.8
  0
CIRCLE
  5
917
  8
0
 10
220.42198714565171
 20
17.151913610792722
 30
0.0
 40
0.8
  0
CIRCLE
  5
91D
  8
0
 10
227.70096198350481
 20
24.550923876370629
 30
0.0
 40
0.8
  0
CIRCLE
  5
923
  8
0
 10
348.9430123077986
 20
9.7529033452148024
 30
0.0
 40
0.8
  0
CIRCLE
  5
929
  8
0
 10
341.42198714565183
 20
17.151913610792722
 30
0.0
 40
0.8
  0
CIRCLE
  5
92F
  8
0
 10
356.22198714565172
 20
17.151913610792722
 30
0.0
 40
0.8
  0
CIRCLE
  5
935
  8
0
 10
348.8219871456518
 20
24.55191361079272
 30
0.0
 40
0.8
  0
CIRCLE
  5
93B
  8
0
 10
431.90836635223587
 20
52.327434247536779
 30
0.0
 40
0.8
  0
CIRCLE
  5
941
  8
0
 10
435.40836635223582
 20
52.327434247536779
 30
0.0
 40
0.8
  0
CIRCLE
  5
947
  8
0
 10
449.51184986344902
 20
78.520198210724189
 30
0.0
 40
0.8
  0
CIRCLE
  5
94D
  8
0
 10
449.51184986344902
 20
75.020198210724232
 30
0.0
 40
0.8
  0
ENDSEC
  0
EOF
